  0
SECTION
  2
HEADER
  9
$ACADVER
  1
AC1009
  9
$INSBASE
 10
0.0
 20
0.0
 30
0.0
  9
$EXTMIN
 10
3403.360170493801
 20
1806.7343626672409
 30
-0.0015258207003583
  9
$EXTMAX
 10
3440.5952461201719
 20
1862.725844986458
 30
0.0000000349246037
  9
$LIMMIN
 10
0.0
 20
0.0
  9
$LIMMAX
 10
420.0
 20
297.0
  9
$ORTHOMODE
 70
     0
  9
$REGENMODE
 70
     1
  9
$FILLMODE
 70
     1
  9
$QTEXTMODE
 70
     0
  9
$MIRRTEXT
 70
     0
  9
$DRAGMODE
 70
     2
  9
$LTSCALE
 40
1.0
  9
$OSMODE
 70
   679
  9
$ATTMODE
 70
     1
  9
$TEXTSIZE
 40
2.5
  9
$TRACEWID
 40
1.0
  9
$TEXTSTYLE
  7
STANDARD
  9
$CLAYER
  8
0
  9
$CELTYPE
  6
BYLAYER
  9
$CECOLOR
 62
   256
  9
$DIMSCALE
 40
1.0
  9
$DIMASZ
 40
2.5
  9
$DIMEXO
 40
0.625
  9
$DIMDLI
 40
3.75
  9
$DIMRND
 40
0.0
  9
$DIMDLE
 40
0.0
  9
$DIMEXE
 40
1.25
  9
$DIMTP
 40
0.0
  9
$DIMTM
 40
0.0
  9
$DIMTXT
 40
2.5
  9
$DIMCEN
 40
2.5
  9
$DIMTSZ
 40
0.0
  9
$DIMTOL
 70
     0
  9
$DIMLIM
 70
     0
  9
$DIMTIH
 70
     0
  9
$DIMTOH
 70
     0
  9
$DIMSE1
 70
     0
  9
$DIMSE2
 70
     0
  9
$DIMTAD
 70
     1
  9
$DIMZIN
 70
     8
  9
$DIMBLK
  1

  9
$DIMASO
 70
     1
  9
$DIMSHO
 70
     1
  9
$DIMPOST
  1

  9
$DIMAPOST
  1

  9
$DIMALT
 70
     0
  9
$DIMALTD
 70
     3
  9
$DIMALTF
 40
0.03937007874016
  9
$DIMLFAC
 40
1.0
  9
$DIMTOFL
 70
     1
  9
$DIMTVP
 40
0.0
  9
$DIMTIX
 70
     0
  9
$DIMSOXD
 70
     0
  9
$DIMSAH
 70
     0
  9
$DIMBLK1
  1

  9
$DIMBLK2
  1

  9
$DIMSTYLE
  2
ISO-25
  9
$DIMCLRD
 70
     0
  9
$DIMCLRE
 70
     0
  9
$DIMCLRT
 70
     0
  9
$DIMTFAC
 40
1.0
  9
$DIMGAP
 40
0.625
  9
$LUNITS
 70
     2
  9
$LUPREC
 70
     4
  9
$SKETCHINC
 40
1.0
  9
$FILLETRAD
 40
0.0
  9
$AUNITS
 70
     0
  9
$AUPREC
 70
     0
  9
$MENU
  1
.
  9
$ELEVATION
 40
0.0
  9
$PELEVATION
 40
0.0
  9
$THICKNESS
 40
0.0
  9
$LIMCHECK
 70
     0
  9
$BLIPMODE
 70
     0
  9
$CHAMFERA
 40
0.0
  9
$CHAMFERB
 40
0.0
  9
$SKPOLY
 70
     0
  9
$TDCREATE
 40
2456925.6255653589
  9
$TDUPDATE
 40
2456930.3857972799
  9
$TDINDWG
 40
0.002483206
  9
$TDUSRTIMER
 40
0.002483206
  9
$USRTIMER
 70
     1
  9
$ANGBASE
 50
0.0
  9
$ANGDIR
 70
     0
  9
$PDMODE
 70
     0
  9
$PDSIZE
 40
0.0
  9
$PLINEWID
 40
0.0
  9
$COORDS
 70
     2
  9
$SPLFRAME
 70
     0
  9
$SPLINETYPE
 70
     6
  9
$SPLINESEGS
 70
     8
  9
$ATTDIA
 70
     0
  9
$ATTREQ
 70
     1
  9
$HANDLING
 70
     1
  9
$HANDSEED
  5
1314
  9
$SURFTAB1
 70
     6
  9
$SURFTAB2
 70
     6
  9
$SURFTYPE
 70
     6
  9
$SURFU
 70
     6
  9
$SURFV
 70
     6
  9
$UCSNAME
  2

  9
$UCSORG
 10
0.0
 20
0.0
 30
0.0
  9
$UCSXDIR
 10
1.0
 20
0.0
 30
0.0
  9
$UCSYDIR
 10
0.0
 20
1.0
 30
0.0
  9
$PUCSNAME
  2

  9
$PUCSORG
 10
0.0
 20
0.0
 30
0.0
  9
$PUCSXDIR
 10
1.0
 20
0.0
 30
0.0
  9
$PUCSYDIR
 10
0.0
 20
1.0
 30
0.0
  9
$USERI1
 70
     0
  9
$USERI2
 70
     0
  9
$USERI3
 70
     0
  9
$USERI4
 70
     0
  9
$USERI5
 70
     0
  9
$USERR1
 40
0.0
  9
$USERR2
 40
0.0
  9
$USERR3
 40
0.0
  9
$USERR4
 40
0.0
  9
$USERR5
 40
0.0
  9
$WORLDVIEW
 70
     1
  9
$SHADEDGE
 70
     3
  9
$SHADEDIF
 70
    70
  9
$TILEMODE
 70
     1
  9
$MAXACTVP
 70
    64
  9
$PLIMCHECK
 70
     0
  9
$PEXTMIN
 10
0.0
 20
0.0
 30
0.0
  9
$PEXTMAX
 10
0.0
 20
0.0
 30
0.0
  9
$PLIMMIN
 10
0.0
 20
0.0
  9
$PLIMMAX
 10
12.0
 20
9.0
  9
$UNITMODE
 70
     0
  9
$VISRETAIN
 70
     1
  9
$PLINEGEN
 70
     0
  9
$PSLTSCALE
 70
     1
  0
ENDSEC
  0
SECTION
  2
TABLES
  0
TABLE
  2
VPORT
 70
     1
  0
VPORT
  2
*ACTIVE
 70
     0
 10
0.0
 20
0.0
 11
1.0
 21
1.0
 12
3414.874180620101
 22
1834.8617192342281
 13
0.0
 23
0.0
 14
10.0
 24
10.0
 15
10.0
 25
10.0
 16
0.0
 26
0.0
 36
1.0
 17
0.0
 27
0.0
 37
0.0
 40
90.193773626710026
 41
1.9598108747044909
 42
50.0
 43
0.0
 44
0.0
 50
0.0
 51
0.0
 71
     0
 72
  1000
 73
     1
 74
     3
 75
     0
 76
     0
 77
     0
 78
     0
  0
ENDTAB
  0
TABLE
  2
LTYPE
 70
     1
  0
LTYPE
  2
CONTINUOUS
 70
     0
  3
Solid line
 72
    65
 73
     0
 40
0.0
  0
ENDTAB
  0
TABLE
  2
LAYER
 70
     1
  0
LAYER
  2
0
 70
     0
 62
     7
  6
CONTINUOUS
  0
ENDTAB
  0
TABLE
  2
STYLE
 70
     2
  0
STYLE
  2
STANDARD
 70
     0
 40
0.0
 41
1.0
 50
0.0
 71
     0
 42
2.5
  3
txt
  4

  0
STYLE
  2
ANNOTATIVA
 70
     0
 40
0.0
 41
1.0
 50
0.0
 71
     0
 42
2.5
  3
txt
  4

  0
ENDTAB
  0
TABLE
  2
VIEW
 70
     0
  0
ENDTAB
  0
TABLE
  2
UCS
 70
     0
  0
ENDTAB
  0
TABLE
  2
APPID
 70
    14
  0
APPID
  2
ACAD
 70
     0
  0
APPID
  2
ACAD_PSEXT
 70
     0
  0
APPID
  2
ACADANNOPO
 70
     0
  0
APPID
  2
ACADANNOTATIVE
 70
     0
  0
APPID
  2
ACAD_DSTYLE_DIMJAG
 70
     0
  0
APPID
  2
ACAD_DSTYLE_DIMTALN
 70
     0
  0
APPID
  2
ACAD_MLEADERVER
 70
     0
  0
APPID
  2
ACAD_DSTYLE_DIMJOGGED_JOGA
 70
     0
  0
APPID
  2
ACAD_EXEMPT_FROM_CAD_STANDARDS
 70
     0
  0
APPID
  2
ACAD_DSTYLE_DIMEXT_ENABLED
 70
     0
  0
APPID
  2
ACAD_DSTYLE_DIMEXT_LENGTH
 70
     0
  0
APPID
  2
ACAD_DSTYLE_DIM_LINETYPE
 70
     0
  0
APPID
  2
ACAD_DSTYLE_DIM_EXT1_LINETYPE
 70
     0
  0
APPID
  2
ACAD_DSTYLE_DIM_EXT2_LINETYPE
 70
     0
  0
ENDTAB
  0
TABLE
  2
DIMSTYLE
 70
     4
  0
DIMSTYLE
  2
STANDARD
 70
     0
  3

  4

  5

  6

  7

 40
1.0
 41
0.18
 42
0.0625
 43
0.38
 44
0.18
 45
0.0
 46
0.0
 47
0.0
 48
0.0
140
0.18
141
0.09
142
0.0
143
25.399999999999999
144
1.0
145
0.0
146
1.0
147
0.09
 71
     0
 72
     0
 73
     1
 74
     1
 75
     0
 76
     0
 77
     0
 78
     0
170
     0
171
     2
172
     0
173
     0
174
     0
175
     0
176
     0
177
     0
178
     0
  0
DIMSTYLE
  2
ANNOTATIVA
 70
     0
  3

  4

  5

  6

  7

 40
0.0
 41
2.5
 42
0.625
 43
3.75
 44
1.25
 45
0.0
 46
0.0
 47
0.0
 48
0.0
140
2.5
141
2.5
142
0.0
143
0.03937007874016
144
1.0
145
0.0
146
1.0
147
0.625
 71
     0
 72
     0
 73
     0
 74
     0
 75
     0
 76
     0
 77
     1
 78
     8
170
     0
171
     3
172
     1
173
     0
174
     0
175
     0
176
     0
177
     0
178
     0
  0
DIMSTYLE
  2
ISO-25
 70
     0
  3

  4

  5

  6

  7

 40
1.0
 41
2.5
 42
0.625
 43
3.75
 44
1.25
 45
0.0
 46
0.0
 47
0.0
 48
0.0
140
2.5
141
2.5
142
0.0
143
0.03937007874016
144
1.0
145
0.0
146
1.0
147
0.625
 71
     0
 72
     0
 73
     0
 74
     0
 75
     0
 76
     0
 77
     1
 78
     8
170
     0
171
     3
172
     1
173
     0
174
     0
175
     0
176
     0
177
     0
178
     0
  0
DIMSTYLE
  2
DAVIDE
 70
     0
  3

  4

  5

  6

  7

 40
1.0
 41
5.0
 42
10.0
 43
5.0
 44
10.0
 45
0.0
 46
0.0
 47
0.0
 48
0.0
140
6.0
141
10.0
142
0.0
143
0.03937007874016
144
1.0
145
0.0
146
1.0
147
1.5
 71
     0
 72
     0
 73
     1
 74
     1
 75
     0
 76
     0
 77
     0
 78
     8
170
     0
171
     3
172
     1
173
     0
174
     0
175
     0
176
   256
177
   256
178
   256
  0
ENDTAB
  0
ENDSEC
  0
SECTION
  2
BLOCKS
  0
BLOCK
  8
0
  2
$MODEL_SPACE
 70
     0
 10
0.0
 20
0.0
 30
0.0
  3
$MODEL_SPACE
  1

  0
ENDBLK
  5
21
  8
0
  0
BLOCK
 67
     1
  8
0
  2
$PAPER_SPACE
 70
     0
 10
0.0
 20
0.0
 30
0.0
  3
$PAPER_SPACE
  1

  0
ENDBLK
  5
D5
 67
     1
  8
0
  0
ENDSEC
  0
SECTION
  2
ENTITIES
  0
LINE
  5
293
  8
0
 10
3406.5903915024442
 20
1816.265566760743
 30
0.0
 11
3425.351077995364
 21
1807.5270851557179
 31
0.0
  0
LINE
  5
294
  8
0
 10
3425.351077995364
 20
1807.5270851557179
 30
0.0
 11
3426.6850283987351
 21
1806.9057485609051
 31
0.0
  0
LINE
  5
295
  8
0
 10
3426.9211459763292
 20
1807.8989260204669
 30
0.0
 11
3427.107258857764
 21
1807.812237082326
 31
0.0
  0
LINE
  5
296
  8
0
 10
3417.7773617110461
 20
1820.168996502905
 30
0.0
 11
3419.477361711045
 21
1820.168996502905
 31
0.0
  0
LINE
  5
297
  8
0
 10
3419.477361711045
 20
1820.168996502905
 30
0.0
 11
3424.6773617110448
 21
1820.168996502905
 31
0.0
  0
LINE
  5
298
  8
0
 10
3424.6773617110448
 20
1820.168996502905
 30
0.0
 11
3426.377361711046
 21
1820.168996502905
 31
0.0
  0
LINE
  5
299
  8
0
 10
3417.7773617110461
 20
1822.668996502905
 30
0.0
 11
3417.8273617110449
 21
1822.668996502905
 31
0.0
  0
LINE
  5
29A
  8
0
 10
3417.8397799997351
 20
1822.668996502905
 30
0.0
 11
3426.3773616962148
 21
1822.668996502905
 31
0.0
  0
LINE
  5
29B
  8
0
 10
3403.5773617110449
 20
1852.197503671159
 30
0.0
 11
3403.5773617110449
 21
1820.668996502905
 31
0.0
  0
LINE
  5
29C
  8
0
 10
3419.3008504351351
 20
1821.4187636460949
 30
0.0
 11
3417.8273617110449
 21
1822.668996502905
 31
0.0
  0
LINE
  5
29D
  8
0
 10
3417.7773617110461
 20
1820.168996502905
 30
0.0
 11
3417.7773617110461
 21
1820.913509462107
 31
0.0
  0
LINE
  5
29E
  8
0
 10
3408.4399604131909
 20
1820.23641479247
 30
0.0
 11
3406.5903915024451
 21
1816.2655667607451
 31
0.0
  0
LINE
  5
29F
  8
0
 10
3406.8223126423259
 20
1819.1318541762989
 30
0.0
 11
3406.3172486695662
 21
1818.0475300019041
 31
0.0
  0
ARC
  5
2A0
  8
0
 10
3406.3690683816162
 20
1819.3429694058129
 30
0.0
 40
0.5
 50
335.02451401551173
 51
93.627492765845957
  0
ARC
  5
2A1
  8
0
 10
3407.9867161524812
 20
1820.447530021984
 30
0.0
 40
0.5
 50
335.02451401551173
 51
93.627492765845957
  0
LINE
  5
2A2
  8
0
 10
3419.477361711045
 20
1820.168996502905
 30
0.0
 11
3419.477361711045
 21
1821.0375090784039
 31
0.0
  0
LINE
  5
2A3
  8
0
 10
3424.6773617110448
 20
1820.168996502905
 30
0.0
 11
3424.6773617110448
 21
1821.0375090784039
 31
0.0
  0
LINE
  5
2A4
  8
0
 10
3413.7728180060349
 20
1848.168996502905
 30
0.0
 11
3415.0730204208849
 21
1848.168996502905
 31
0.0
  0
LINE
  5
2A5
  8
0
 10
3413.7433192890949
 20
1850.168996502905
 30
0.0
 11
3415.0434121442249
 21
1850.168996502905
 31
0.0
  0
LINE
  5
2A6
  8
0
 10
3410.6227845984749
 20
1862.668996502905
 30
0.0
 11
3414.881577979957
 21
1858.6171897494751
 31
0.0
  0
LINE
  5
2A7
  8
0
 10
3410.3678740743271
 20
1861.53124327618
 30
0.0
 11
3413.8773898034551
 21
1858.192297650317
 31
0.0
  0
ARC
  5
2A8
  8
0
 10
3410.0232332827022
 20
1861.168996502905
 30
0.0
 40
0.5
 50
46.426733169734383
 51
90.0
  0
LINE
  5
2A9
  8
0
 10
3415.0392247475702
 20
1858.467204957901
 30
0.0
 11
3437.6813875248431
 21
1836.9255005746479
 31
0.0
  0
LINE
  5
2AA
  8
0
 10
3438.2497757900092
 20
1836.3847372163259
 30
0.0
 11
3440.322963497862
 21
1834.412310943585
 31
0.0
  0
ARC
  5
2AB
  8
0
 10
3439.9783227062371
 20
1834.05006417031
 30
0.0
 40
0.5
 50
335.84450804186429
 51
46.426733169734383
  0
LINE
  5
2AC
  8
0
 10
3438.6623980859181
 20
1834.6118947175539
 30
0.0
 11
3439.1208805895271
 21
1834.175695461556
 31
0.0
  0
LINE
  5
2AD
  8
0
 10
3429.2374982606389
 20
1821.7186571051409
 30
0.0
 11
3425.3510779953649
 21
1807.527085155725
 31
0.0
  0
LINE
  5
2AE
  8
0
 10
3430.795803524546
 20
1823.622901287989
 30
0.0
 11
3426.6500175026249
 21
1808.4842346999519
 31
0.0
  0
ARC
  5
2AF
  8
0
 10
3427.1322612058439
 20
1808.3521702811779
 30
0.0
 40
0.5
 50
164.68480538277271
 51
245.0245140153387
  0
LINE
  5
2B0
  8
0
 10
3424.8538729869451
 20
1821.4187636460949
 30
0.0
 11
3426.3273617110449
 21
1822.668996502905
 31
0.0
  0
LINE
  5
2B1
  8
0
 10
3440.4345418432458
 20
1833.845456988063
 30
0.0
 11
3428.687031455655
 21
1807.6516597216239
 31
0.0
  0
LINE
  5
2B2
  8
0
 10
3439.23245893491
 20
1833.608841506034
 30
0.0
 11
3427.7745931816371
 21
1808.060874086118
 31
0.0
  0
ARC
  5
2B3
  8
0
 10
3438.7762397979018
 20
1833.8134486882809
 30
0.0
 40
0.5
 50
335.84450804186429
 51
46.426733169734383
  0
LINE
  5
2B4
  8
0
 10
3403.5773617110449
 20
1862.668996502905
 30
0.0
 11
3410.6227845984749
 21
1862.668996502905
 31
0.0
  0
LINE
  5
2B5
  8
0
 10
3405.0773617110449
 20
1861.668996502905
 30
0.0
 11
3410.0232332827022
 21
1861.668996502905
 31
0.0
  0
ARC
  5
2B6
  8
0
 10
3405.0773617110449
 20
1861.168996502905
 30
0.0
 40
0.5
 50
90.0
 51
180.0
  0
ARC
  5
2CE
  8
0
 10
3777.458450832396
 20
1854.5009816857539
 30
0.0
 40
362.44092810134998
 50
179.40736919714641
 51
180.68482988166409
  0
ARC
  5
2CF
  8
0
 10
3777.4584508327771
 20
1854.5009816857539
 30
0.0
 40
363.44092810173089
 50
179.47589221294109
 51
180.2625892954006
  0
ARC
  5
2D0
  8
0
 10
3413.5224396988961
 20
1852.8684692578429
 30
0.0
 40
0.5
 50
265.20462299409832
 51
0.3591845674920139
  0
ARC
  5
2D1
  8
0
 10
3413.5327490118289
 20
1857.830050877043
 30
0.0
 40
0.5
 50
359.47589221294112
 51
46.426733169734383
  0
ARC
  5
2D2
  8
0
 10
3414.5369371883298
 20
1858.2549429762
 30
0.0
 40
0.5
 50
359.40736919714652
 51
46.426733169734383
  0
ARC
  5
2D3
  8
0
 10
3766.805502672195
 20
1854.3762196636251
 30
0.0
 40
353.08724992834999
 50
180.6827259697956
 51
181.007303467078
  0
ARC
  5
2D4
  8
0
 10
3316.6752276341149
 20
1847.7125211298951
 30
0.0
 40
98.398851594289994
 50
0.2657978799457194
 51
1.430507496274847
  0
ARC
  5
2D5
  8
0
 10
3427.3183740872751
 20
1808.2654813430449
 30
0.0
 40
1.5
 50
245.0245140153387
 51
335.8445047725163
  0
ARC
  5
2D6
  8
0
 10
3427.3183740872751
 20
1808.2654813430449
 30
0.0
 40
0.5
 50
245.0245140153387
 51
335.8445047725163
  0
ARC
  5
2D7
  8
0
 10
3425.1773617110448
 20
1821.0375090784039
 30
0.0
 40
0.5
 50
130.3141001605334
 51
180.0
  0
ARC
  5
2D8
  8
0
 10
3418.977361711045
 20
1821.0375090784039
 30
0.0
 40
0.5
 50
0.0
 51
49.685899839466579
  0
POLYLINE
  8
0
  5
40A
  66
     1
 10
0.000000
 20
0.000000
 30
0.000000
  70
     8
  0
VERTEX
  8
0
  5
40B
 10
3426.38
 20
1822.67
 30
0.000000
  70
    32
  0
VERTEX
  8
0
  5
40C
 10
3426.42
 20
1822.68
 30
0.000000
  70
    32
  0
VERTEX
  8
0
  5
40D
 10
3426.46
 20
1822.68
 30
0.000000
  70
    32
  0
VERTEX
  8
0
  5
40E
 10
3426.51
 20
1822.69
 30
0.000000
  70
    32
  0
VERTEX
  8
0
  5
40F
 10
3426.55
 20
1822.70
 30
0.000000
  70
    32
  0
VERTEX
  8
0
  5
410
 10
3426.59
 20
1822.71
 30
0.000000
  70
    32
  0
VERTEX
  8
0
  5
411
 10
3426.64
 20
1822.71
 30
0.000000
  70
    32
  0
VERTEX
  8
0
  5
412
 10
3426.68
 20
1822.72
 30
0.000000
  70
    32
  0
VERTEX
  8
0
  5
413
 10
3426.72
 20
1822.73
 30
0.000000
  70
    32
  0
VERTEX
  8
0
  5
414
 10
3426.76
 20
1822.74
 30
0.000000
  70
    32
  0
VERTEX
  8
0
  5
415
 10
3426.81
 20
1822.75
 30
0.000000
  70
    32
  0
VERTEX
  8
0
  5
416
 10
3426.85
 20
1822.76
 30
0.000000
  70
    32
  0
VERTEX
  8
0
  5
417
 10
3426.89
 20
1822.77
 30
0.000000
  70
    32
  0
VERTEX
  8
0
  5
418
 10
3426.94
 20
1822.78
 30
0.000000
  70
    32
  0
VERTEX
  8
0
  5
419
 10
3426.98
 20
1822.79
 30
0.000000
  70
    32
  0
VERTEX
  8
0
  5
41A
 10
3427.02
 20
1822.80
 30
0.000000
  70
    32
  0
VERTEX
  8
0
  5
41B
 10
3427.06
 20
1822.82
 30
0.000000
  70
    32
  0
VERTEX
  8
0
  5
41C
 10
3427.10
 20
1822.83
 30
0.000000
  70
    32
  0
VERTEX
  8
0
  5
41D
 10
3427.15
 20
1822.84
 30
0.000000
  70
    32
  0
VERTEX
  8
0
  5
41E
 10
3427.19
 20
1822.85
 30
0.000000
  70
    32
  0
VERTEX
  8
0
  5
41F
 10
3427.23
 20
1822.87
 30
0.000000
  70
    32
  0
VERTEX
  8
0
  5
420
 10
3427.27
 20
1822.88
 30
0.000000
  70
    32
  0
VERTEX
  8
0
  5
421
 10
3427.31
 20
1822.89
 30
0.000000
  70
    32
  0
VERTEX
  8
0
  5
422
 10
3427.36
 20
1822.91
 30
0.000000
  70
    32
  0
VERTEX
  8
0
  5
423
 10
3427.40
 20
1822.92
 30
0.000000
  70
    32
  0
VERTEX
  8
0
  5
424
 10
3427.44
 20
1822.93
 30
0.000000
  70
    32
  0
VERTEX
  8
0
  5
425
 10
3427.48
 20
1822.95
 30
0.000000
  70
    32
  0
VERTEX
  8
0
  5
426
 10
3427.52
 20
1822.96
 30
0.000000
  70
    32
  0
VERTEX
  8
0
  5
427
 10
3427.56
 20
1822.98
 30
0.000000
  70
    32
  0
VERTEX
  8
0
  5
428
 10
3427.60
 20
1822.99
 30
0.000000
  70
    32
  0
VERTEX
  8
0
  5
429
 10
3427.65
 20
1823.01
 30
0.000000
  70
    32
  0
VERTEX
  8
0
  5
42A
 10
3427.69
 20
1823.02
 30
0.000000
  70
    32
  0
VERTEX
  8
0
  5
42B
 10
3427.73
 20
1823.04
 30
0.000000
  70
    32
  0
VERTEX
  8
0
  5
42C
 10
3427.77
 20
1823.06
 30
0.000000
  70
    32
  0
VERTEX
  8
0
  5
42D
 10
3427.81
 20
1823.07
 30
0.000000
  70
    32
  0
VERTEX
  8
0
  5
42E
 10
3427.85
 20
1823.09
 30
0.000000
  70
    32
  0
VERTEX
  8
0
  5
42F
 10
3427.89
 20
1823.11
 30
0.000000
  70
    32
  0
VERTEX
  8
0
  5
430
 10
3427.93
 20
1823.12
 30
0.000000
  70
    32
  0
VERTEX
  8
0
  5
431
 10
3427.97
 20
1823.14
 30
0.000000
  70
    32
  0
VERTEX
  8
0
  5
432
 10
3428.01
 20
1823.16
 30
0.000000
  70
    32
  0
VERTEX
  8
0
  5
433
 10
3428.05
 20
1823.18
 30
0.000000
  70
    32
  0
VERTEX
  8
0
  5
434
 10
3428.09
 20
1823.20
 30
0.000000
  70
    32
  0
VERTEX
  8
0
  5
435
 10
3428.13
 20
1823.21
 30
0.000000
  70
    32
  0
VERTEX
  8
0
  5
436
 10
3428.17
 20
1823.23
 30
0.000000
  70
    32
  0
VERTEX
  8
0
  5
437
 10
3428.21
 20
1823.25
 30
0.000000
  70
    32
  0
VERTEX
  8
0
  5
438
 10
3428.25
 20
1823.27
 30
0.000000
  70
    32
  0
VERTEX
  8
0
  5
439
 10
3428.29
 20
1823.29
 30
0.000000
  70
    32
  0
VERTEX
  8
0
  5
43A
 10
3428.33
 20
1823.31
 30
0.000000
  70
    32
  0
VERTEX
  8
0
  5
43B
 10
3428.37
 20
1823.33
 30
0.000000
  70
    32
  0
VERTEX
  8
0
  5
43C
 10
3428.40
 20
1823.35
 30
0.000000
  70
    32
  0
VERTEX
  8
0
  5
43D
 10
3428.44
 20
1823.37
 30
0.000000
  70
    32
  0
VERTEX
  8
0
  5
43E
 10
3428.48
 20
1823.39
 30
0.000000
  70
    32
  0
VERTEX
  8
0
  5
43F
 10
3428.52
 20
1823.41
 30
0.000000
  70
    32
  0
VERTEX
  8
0
  5
440
 10
3428.56
 20
1823.43
 30
0.000000
  70
    32
  0
VERTEX
  8
0
  5
441
 10
3428.60
 20
1823.45
 30
0.000000
  70
    32
  0
VERTEX
  8
0
  5
442
 10
3428.64
 20
1823.47
 30
0.000000
  70
    32
  0
VERTEX
  8
0
  5
443
 10
3428.67
 20
1823.49
 30
0.000000
  70
    32
  0
VERTEX
  8
0
  5
444
 10
3428.71
 20
1823.52
 30
0.000000
  70
    32
  0
VERTEX
  8
0
  5
445
 10
3428.75
 20
1823.54
 30
0.000000
  70
    32
  0
VERTEX
  8
0
  5
446
 10
3428.79
 20
1823.56
 30
0.000000
  70
    32
  0
VERTEX
  8
0
  5
447
 10
3428.83
 20
1823.58
 30
0.000000
  70
    32
  0
VERTEX
  8
0
  5
448
 10
3428.86
 20
1823.60
 30
0.000000
  70
    32
  0
VERTEX
  8
0
  5
449
 10
3428.90
 20
1823.63
 30
0.000000
  70
    32
  0
VERTEX
  8
0
  5
44A
 10
3428.94
 20
1823.65
 30
0.000000
  70
    32
  0
VERTEX
  8
0
  5
44B
 10
3428.98
 20
1823.67
 30
0.000000
  70
    32
  0
VERTEX
  8
0
  5
44C
 10
3429.01
 20
1823.69
 30
0.000000
  70
    32
  0
VERTEX
  8
0
  5
44D
 10
3429.05
 20
1823.72
 30
0.000000
  70
    32
  0
VERTEX
  8
0
  5
44E
 10
3429.09
 20
1823.74
 30
0.000000
  70
    32
  0
VERTEX
  8
0
  5
44F
 10
3429.13
 20
1823.76
 30
0.000000
  70
    32
  0
VERTEX
  8
0
  5
450
 10
3429.16
 20
1823.79
 30
0.000000
  70
    32
  0
VERTEX
  8
0
  5
451
 10
3429.20
 20
1823.81
 30
0.000000
  70
    32
  0
VERTEX
  8
0
  5
452
 10
3429.24
 20
1823.84
 30
0.000000
  70
    32
  0
VERTEX
  8
0
  5
453
 10
3429.27
 20
1823.86
 30
0.000000
  70
    32
  0
VERTEX
  8
0
  5
454
 10
3429.31
 20
1823.88
 30
0.000000
  70
    32
  0
VERTEX
  8
0
  5
455
 10
3429.35
 20
1823.91
 30
0.000000
  70
    32
  0
VERTEX
  8
0
  5
456
 10
3429.38
 20
1823.93
 30
0.000000
  70
    32
  0
VERTEX
  8
0
  5
457
 10
3429.42
 20
1823.96
 30
0.000000
  70
    32
  0
VERTEX
  8
0
  5
458
 10
3429.45
 20
1823.98
 30
0.000000
  70
    32
  0
VERTEX
  8
0
  5
459
 10
3429.49
 20
1824.01
 30
0.000000
  70
    32
  0
VERTEX
  8
0
  5
45A
 10
3429.53
 20
1824.03
 30
0.000000
  70
    32
  0
VERTEX
  8
0
  5
45B
 10
3429.56
 20
1824.06
 30
0.000000
  70
    32
  0
VERTEX
  8
0
  5
45C
 10
3429.60
 20
1824.08
 30
0.000000
  70
    32
  0
VERTEX
  8
0
  5
45D
 10
3429.63
 20
1824.11
 30
0.000000
  70
    32
  0
VERTEX
  8
0
  5
45E
 10
3429.67
 20
1824.13
 30
0.000000
  70
    32
  0
VERTEX
  8
0
  5
45F
 10
3429.70
 20
1824.16
 30
0.000000
  70
    32
  0
VERTEX
  8
0
  5
460
 10
3429.74
 20
1824.19
 30
0.000000
  70
    32
  0
VERTEX
  8
0
  5
461
 10
3429.77
 20
1824.21
 30
0.000000
  70
    32
  0
VERTEX
  8
0
  5
462
 10
3429.81
 20
1824.24
 30
0.000000
  70
    32
  0
VERTEX
  8
0
  5
463
 10
3429.84
 20
1824.26
 30
0.000000
  70
    32
  0
VERTEX
  8
0
  5
464
 10
3429.88
 20
1824.29
 30
0.000000
  70
    32
  0
VERTEX
  8
0
  5
465
 10
3429.91
 20
1824.32
 30
0.000000
  70
    32
  0
VERTEX
  8
0
  5
466
 10
3429.95
 20
1824.34
 30
0.000000
  70
    32
  0
VERTEX
  8
0
  5
467
 10
3429.98
 20
1824.37
 30
0.000000
  70
    32
  0
VERTEX
  8
0
  5
468
 10
3430.02
 20
1824.40
 30
0.000000
  70
    32
  0
VERTEX
  8
0
  5
469
 10
3430.05
 20
1824.43
 30
0.000000
  70
    32
  0
VERTEX
  8
0
  5
46A
 10
3430.09
 20
1824.45
 30
0.000000
  70
    32
  0
VERTEX
  8
0
  5
46B
 10
3430.12
 20
1824.48
 30
0.000000
  70
    32
  0
VERTEX
  8
0
  5
46C
 10
3430.15
 20
1824.51
 30
0.000000
  70
    32
  0
VERTEX
  8
0
  5
46D
 10
3430.19
 20
1824.54
 30
0.000000
  70
    32
  0
VERTEX
  8
0
  5
46E
 10
3430.22
 20
1824.56
 30
0.000000
  70
    32
  0
VERTEX
  8
0
  5
46F
 10
3430.26
 20
1824.59
 30
0.000000
  70
    32
  0
VERTEX
  8
0
  5
470
 10
3430.29
 20
1824.62
 30
0.000000
  70
    32
  0
VERTEX
  8
0
  5
471
 10
3430.32
 20
1824.65
 30
0.000000
  70
    32
  0
VERTEX
  8
0
  5
472
 10
3430.36
 20
1824.68
 30
0.000000
  70
    32
  0
VERTEX
  8
0
  5
473
 10
3430.39
 20
1824.70
 30
0.000000
  70
    32
  0
VERTEX
  8
0
  5
474
 10
3430.42
 20
1824.73
 30
0.000000
  70
    32
  0
VERTEX
  8
0
  5
475
 10
3430.46
 20
1824.76
 30
0.000000
  70
    32
  0
VERTEX
  8
0
  5
476
 10
3430.49
 20
1824.79
 30
0.000000
  70
    32
  0
VERTEX
  8
0
  5
477
 10
3430.52
 20
1824.82
 30
0.000000
  70
    32
  0
VERTEX
  8
0
  5
478
 10
3430.56
 20
1824.85
 30
0.000000
  70
    32
  0
VERTEX
  8
0
  5
479
 10
3430.59
 20
1824.88
 30
0.000000
  70
    32
  0
VERTEX
  8
0
  5
47A
 10
3430.62
 20
1824.90
 30
0.000000
  70
    32
  0
VERTEX
  8
0
  5
47B
 10
3430.65
 20
1824.93
 30
0.000000
  70
    32
  0
VERTEX
  8
0
  5
47C
 10
3430.69
 20
1824.96
 30
0.000000
  70
    32
  0
VERTEX
  8
0
  5
47D
 10
3430.72
 20
1824.99
 30
0.000000
  70
    32
  0
VERTEX
  8
0
  5
47E
 10
3430.75
 20
1825.02
 30
0.000000
  70
    32
  0
VERTEX
  8
0
  5
47F
 10
3430.78
 20
1825.05
 30
0.000000
  70
    32
  0
VERTEX
  8
0
  5
480
 10
3430.82
 20
1825.08
 30
0.000000
  70
    32
  0
VERTEX
  8
0
  5
481
 10
3430.85
 20
1825.11
 30
0.000000
  70
    32
  0
VERTEX
  8
0
  5
482
 10
3430.88
 20
1825.14
 30
0.000000
  70
    32
  0
VERTEX
  8
0
  5
483
 10
3430.91
 20
1825.17
 30
0.000000
  70
    32
  0
VERTEX
  8
0
  5
484
 10
3430.94
 20
1825.20
 30
0.000000
  70
    32
  0
VERTEX
  8
0
  5
485
 10
3430.98
 20
1825.23
 30
0.000000
  70
    32
  0
VERTEX
  8
0
  5
486
 10
3431.01
 20
1825.26
 30
0.000000
  70
    32
  0
VERTEX
  8
0
  5
487
 10
3431.04
 20
1825.29
 30
0.000000
  70
    32
  0
VERTEX
  8
0
  5
488
 10
3431.07
 20
1825.32
 30
0.000000
  70
    32
  0
VERTEX
  8
0
  5
489
 10
3431.10
 20
1825.35
 30
0.000000
  70
    32
  0
VERTEX
  8
0
  5
48A
 10
3431.13
 20
1825.38
 30
0.000000
  70
    32
  0
VERTEX
  8
0
  5
48B
 10
3431.16
 20
1825.41
 30
0.000000
  70
    32
  0
VERTEX
  8
0
  5
48C
 10
3431.20
 20
1825.44
 30
0.000000
  70
    32
  0
VERTEX
  8
0
  5
48D
 10
3431.23
 20
1825.48
 30
0.000000
  70
    32
  0
VERTEX
  8
0
  5
48E
 10
3431.26
 20
1825.51
 30
0.000000
  70
    32
  0
VERTEX
  8
0
  5
48F
 10
3431.29
 20
1825.54
 30
0.000000
  70
    32
  0
VERTEX
  8
0
  5
490
 10
3431.32
 20
1825.57
 30
0.000000
  70
    32
  0
VERTEX
  8
0
  5
491
 10
3431.35
 20
1825.60
 30
0.000000
  70
    32
  0
VERTEX
  8
0
  5
492
 10
3431.38
 20
1825.63
 30
0.000000
  70
    32
  0
VERTEX
  8
0
  5
493
 10
3431.41
 20
1825.66
 30
0.000000
  70
    32
  0
VERTEX
  8
0
  5
494
 10
3431.44
 20
1825.69
 30
0.000000
  70
    32
  0
VERTEX
  8
0
  5
495
 10
3431.47
 20
1825.72
 30
0.000000
  70
    32
  0
VERTEX
  8
0
  5
496
 10
3431.50
 20
1825.76
 30
0.000000
  70
    32
  0
VERTEX
  8
0
  5
497
 10
3431.53
 20
1825.79
 30
0.000000
  70
    32
  0
VERTEX
  8
0
  5
498
 10
3431.56
 20
1825.82
 30
0.000000
  70
    32
  0
VERTEX
  8
0
  5
499
 10
3431.59
 20
1825.85
 30
0.000000
  70
    32
  0
VERTEX
  8
0
  5
49A
 10
3431.62
 20
1825.88
 30
0.000000
  70
    32
  0
VERTEX
  8
0
  5
49B
 10
3431.65
 20
1825.92
 30
0.000000
  70
    32
  0
VERTEX
  8
0
  5
49C
 10
3431.68
 20
1825.95
 30
0.000000
  70
    32
  0
VERTEX
  8
0
  5
49D
 10
3431.71
 20
1825.98
 30
0.000000
  70
    32
  0
VERTEX
  8
0
  5
49E
 10
3431.74
 20
1826.01
 30
0.000000
  70
    32
  0
VERTEX
  8
0
  5
49F
 10
3431.77
 20
1826.04
 30
0.000000
  70
    32
  0
VERTEX
  8
0
  5
4A0
 10
3431.80
 20
1826.08
 30
0.000000
  70
    32
  0
VERTEX
  8
0
  5
4A1
 10
3431.83
 20
1826.11
 30
0.000000
  70
    32
  0
VERTEX
  8
0
  5
4A2
 10
3431.86
 20
1826.14
 30
0.000000
  70
    32
  0
VERTEX
  8
0
  5
4A3
 10
3431.89
 20
1826.17
 30
0.000000
  70
    32
  0
VERTEX
  8
0
  5
4A4
 10
3431.92
 20
1826.21
 30
0.000000
  70
    32
  0
VERTEX
  8
0
  5
4A5
 10
3431.95
 20
1826.24
 30
0.000000
  70
    32
  0
VERTEX
  8
0
  5
4A6
 10
3431.97
 20
1826.27
 30
0.000000
  70
    32
  0
VERTEX
  8
0
  5
4A7
 10
3432.00
 20
1826.31
 30
0.000000
  70
    32
  0
VERTEX
  8
0
  5
4A8
 10
3432.03
 20
1826.34
 30
0.000000
  70
    32
  0
VERTEX
  8
0
  5
4A9
 10
3432.06
 20
1826.37
 30
0.000000
  70
    32
  0
VERTEX
  8
0
  5
4AA
 10
3432.09
 20
1826.40
 30
0.000000
  70
    32
  0
VERTEX
  8
0
  5
4AB
 10
3432.12
 20
1826.44
 30
0.000000
  70
    32
  0
VERTEX
  8
0
  5
4AC
 10
3432.15
 20
1826.47
 30
0.000000
  70
    32
  0
VERTEX
  8
0
  5
4AD
 10
3432.18
 20
1826.50
 30
0.000000
  70
    32
  0
VERTEX
  8
0
  5
4AE
 10
3432.20
 20
1826.54
 30
0.000000
  70
    32
  0
VERTEX
  8
0
  5
4AF
 10
3432.23
 20
1826.57
 30
0.000000
  70
    32
  0
VERTEX
  8
0
  5
4B0
 10
3432.26
 20
1826.60
 30
0.000000
  70
    32
  0
VERTEX
  8
0
  5
4B1
 10
3432.29
 20
1826.64
 30
0.000000
  70
    32
  0
VERTEX
  8
0
  5
4B2
 10
3432.32
 20
1826.67
 30
0.000000
  70
    32
  0
VERTEX
  8
0
  5
4B3
 10
3432.34
 20
1826.71
 30
0.000000
  70
    32
  0
VERTEX
  8
0
  5
4B4
 10
3432.37
 20
1826.74
 30
0.000000
  70
    32
  0
VERTEX
  8
0
  5
4B5
 10
3432.40
 20
1826.77
 30
0.000000
  70
    32
  0
VERTEX
  8
0
  5
4B6
 10
3432.43
 20
1826.81
 30
0.000000
  70
    32
  0
VERTEX
  8
0
  5
4B7
 10
3432.46
 20
1826.84
 30
0.000000
  70
    32
  0
VERTEX
  8
0
  5
4B8
 10
3432.48
 20
1826.87
 30
0.000000
  70
    32
  0
VERTEX
  8
0
  5
4B9
 10
3432.51
 20
1826.91
 30
0.000000
  70
    32
  0
VERTEX
  8
0
  5
4BA
 10
3432.54
 20
1826.94
 30
0.000000
  70
    32
  0
VERTEX
  8
0
  5
4BB
 10
3432.57
 20
1826.98
 30
0.000000
  70
    32
  0
VERTEX
  8
0
  5
4BC
 10
3432.59
 20
1827.01
 30
0.000000
  70
    32
  0
VERTEX
  8
0
  5
4BD
 10
3432.62
 20
1827.05
 30
0.000000
  70
    32
  0
VERTEX
  8
0
  5
4BE
 10
3432.65
 20
1827.08
 30
0.000000
  70
    32
  0
VERTEX
  8
0
  5
4BF
 10
3432.68
 20
1827.11
 30
0.000000
  70
    32
  0
VERTEX
  8
0
  5
4C0
 10
3432.70
 20
1827.15
 30
0.000000
  70
    32
  0
VERTEX
  8
0
  5
4C1
 10
3432.73
 20
1827.18
 30
0.000000
  70
    32
  0
VERTEX
  8
0
  5
4C2
 10
3432.76
 20
1827.22
 30
0.000000
  70
    32
  0
VERTEX
  8
0
  5
4C3
 10
3432.78
 20
1827.25
 30
0.000000
  70
    32
  0
VERTEX
  8
0
  5
4C4
 10
3432.81
 20
1827.29
 30
0.000000
  70
    32
  0
VERTEX
  8
0
  5
4C5
 10
3432.84
 20
1827.32
 30
0.000000
  70
    32
  0
VERTEX
  8
0
  5
4C6
 10
3432.86
 20
1827.36
 30
0.000000
  70
    32
  0
VERTEX
  8
0
  5
4C7
 10
3432.89
 20
1827.39
 30
0.000000
  70
    32
  0
VERTEX
  8
0
  5
4C8
 10
3432.92
 20
1827.43
 30
0.000000
  70
    32
  0
VERTEX
  8
0
  5
4C9
 10
3432.94
 20
1827.46
 30
0.000000
  70
    32
  0
VERTEX
  8
0
  5
4CA
 10
3432.97
 20
1827.50
 30
0.000000
  70
    32
  0
VERTEX
  8
0
  5
4CB
 10
3433.00
 20
1827.53
 30
0.000000
  70
    32
  0
VERTEX
  8
0
  5
4CC
 10
3433.02
 20
1827.57
 30
0.000000
  70
    32
  0
VERTEX
  8
0
  5
4CD
 10
3433.05
 20
1827.60
 30
0.000000
  70
    32
  0
VERTEX
  8
0
  5
4CE
 10
3433.07
 20
1827.64
 30
0.000000
  70
    32
  0
VERTEX
  8
0
  5
4CF
 10
3433.10
 20
1827.67
 30
0.000000
  70
    32
  0
VERTEX
  8
0
  5
4D0
 10
3433.13
 20
1827.71
 30
0.000000
  70
    32
  0
VERTEX
  8
0
  5
4D1
 10
3433.15
 20
1827.74
 30
0.000000
  70
    32
  0
VERTEX
  8
0
  5
4D2
 10
3433.18
 20
1827.78
 30
0.000000
  70
    32
  0
VERTEX
  8
0
  5
4D3
 10
3433.20
 20
1827.81
 30
0.000000
  70
    32
  0
VERTEX
  8
0
  5
4D4
 10
3433.23
 20
1827.85
 30
0.000000
  70
    32
  0
VERTEX
  8
0
  5
4D5
 10
3433.25
 20
1827.88
 30
0.000000
  70
    32
  0
VERTEX
  8
0
  5
4D6
 10
3433.28
 20
1827.92
 30
0.000000
  70
    32
  0
VERTEX
  8
0
  5
4D7
 10
3433.31
 20
1827.95
 30
0.000000
  70
    32
  0
VERTEX
  8
0
  5
4D8
 10
3433.33
 20
1827.99
 30
0.000000
  70
    32
  0
VERTEX
  8
0
  5
4D9
 10
3433.36
 20
1828.03
 30
0.000000
  70
    32
  0
VERTEX
  8
0
  5
4DA
 10
3433.38
 20
1828.06
 30
0.000000
  70
    32
  0
VERTEX
  8
0
  5
4DB
 10
3433.41
 20
1828.10
 30
0.000000
  70
    32
  0
VERTEX
  8
0
  5
4DC
 10
3433.43
 20
1828.13
 30
0.000000
  70
    32
  0
VERTEX
  8
0
  5
4DD
 10
3433.46
 20
1828.17
 30
0.000000
  70
    32
  0
VERTEX
  8
0
  5
4DE
 10
3433.48
 20
1828.20
 30
0.000000
  70
    32
  0
VERTEX
  8
0
  5
4DF
 10
3433.51
 20
1828.24
 30
0.000000
  70
    32
  0
VERTEX
  8
0
  5
4E0
 10
3433.53
 20
1828.28
 30
0.000000
  70
    32
  0
VERTEX
  8
0
  5
4E1
 10
3433.56
 20
1828.31
 30
0.000000
  70
    32
  0
VERTEX
  8
0
  5
4E2
 10
3433.58
 20
1828.35
 30
0.000000
  70
    32
  0
VERTEX
  8
0
  5
4E3
 10
3433.61
 20
1828.39
 30
0.000000
  70
    32
  0
VERTEX
  8
0
  5
4E4
 10
3433.63
 20
1828.42
 30
0.000000
  70
    32
  0
VERTEX
  8
0
  5
4E5
 10
3433.66
 20
1828.46
 30
0.000000
  70
    32
  0
VERTEX
  8
0
  5
4E6
 10
3433.68
 20
1828.49
 30
0.000000
  70
    32
  0
VERTEX
  8
0
  5
4E7
 10
3433.70
 20
1828.53
 30
0.000000
  70
    32
  0
VERTEX
  8
0
  5
4E8
 10
3433.73
 20
1828.57
 30
0.000000
  70
    32
  0
VERTEX
  8
0
  5
4E9
 10
3433.75
 20
1828.60
 30
0.000000
  70
    32
  0
VERTEX
  8
0
  5
4EA
 10
3433.78
 20
1828.64
 30
0.000000
  70
    32
  0
VERTEX
  8
0
  5
4EB
 10
3433.80
 20
1828.68
 30
0.000000
  70
    32
  0
VERTEX
  8
0
  5
4EC
 10
3433.83
 20
1828.71
 30
0.000000
  70
    32
  0
VERTEX
  8
0
  5
4ED
 10
3433.85
 20
1828.75
 30
0.000000
  70
    32
  0
VERTEX
  8
0
  5
4EE
 10
3433.87
 20
1828.79
 30
0.000000
  70
    32
  0
VERTEX
  8
0
  5
4EF
 10
3433.90
 20
1828.82
 30
0.000000
  70
    32
  0
VERTEX
  8
0
  5
4F0
 10
3433.92
 20
1828.86
 30
0.000000
  70
    32
  0
VERTEX
  8
0
  5
4F1
 10
3433.95
 20
1828.90
 30
0.000000
  70
    32
  0
VERTEX
  8
0
  5
4F2
 10
3433.97
 20
1828.93
 30
0.000000
  70
    32
  0
VERTEX
  8
0
  5
4F3
 10
3433.99
 20
1828.97
 30
0.000000
  70
    32
  0
VERTEX
  8
0
  5
4F4
 10
3434.02
 20
1829.01
 30
0.000000
  70
    32
  0
VERTEX
  8
0
  5
4F5
 10
3434.04
 20
1829.04
 30
0.000000
  70
    32
  0
VERTEX
  8
0
  5
4F6
 10
3434.06
 20
1829.08
 30
0.000000
  70
    32
  0
VERTEX
  8
0
  5
4F7
 10
3434.09
 20
1829.12
 30
0.000000
  70
    32
  0
VERTEX
  8
0
  5
4F8
 10
3434.11
 20
1829.15
 30
0.000000
  70
    32
  0
VERTEX
  8
0
  5
4F9
 10
3434.13
 20
1829.19
 30
0.000000
  70
    32
  0
VERTEX
  8
0
  5
4FA
 10
3434.16
 20
1829.23
 30
0.000000
  70
    32
  0
VERTEX
  8
0
  5
4FB
 10
3434.18
 20
1829.27
 30
0.000000
  70
    32
  0
VERTEX
  8
0
  5
4FC
 10
3434.20
 20
1829.30
 30
0.000000
  70
    32
  0
VERTEX
  8
0
  5
4FD
 10
3434.23
 20
1829.34
 30
0.000000
  70
    32
  0
VERTEX
  8
0
  5
4FE
 10
3434.25
 20
1829.38
 30
0.000000
  70
    32
  0
VERTEX
  8
0
  5
4FF
 10
3434.27
 20
1829.41
 30
0.000000
  70
    32
  0
VERTEX
  8
0
  5
500
 10
3434.30
 20
1829.45
 30
0.000000
  70
    32
  0
VERTEX
  8
0
  5
501
 10
3434.32
 20
1829.49
 30
0.000000
  70
    32
  0
VERTEX
  8
0
  5
502
 10
3434.34
 20
1829.53
 30
0.000000
  70
    32
  0
VERTEX
  8
0
  5
503
 10
3434.36
 20
1829.56
 30
0.000000
  70
    32
  0
VERTEX
  8
0
  5
504
 10
3434.39
 20
1829.60
 30
0.000000
  70
    32
  0
VERTEX
  8
0
  5
505
 10
3434.41
 20
1829.64
 30
0.000000
  70
    32
  0
VERTEX
  8
0
  5
506
 10
3434.43
 20
1829.68
 30
0.000000
  70
    32
  0
VERTEX
  8
0
  5
507
 10
3434.46
 20
1829.71
 30
0.000000
  70
    32
  0
VERTEX
  8
0
  5
508
 10
3434.48
 20
1829.75
 30
0.000000
  70
    32
  0
VERTEX
  8
0
  5
509
 10
3434.50
 20
1829.79
 30
0.000000
  70
    32
  0
VERTEX
  8
0
  5
50A
 10
3434.52
 20
1829.83
 30
0.000000
  70
    32
  0
VERTEX
  8
0
  5
50B
 10
3434.54
 20
1829.86
 30
0.000000
  70
    32
  0
VERTEX
  8
0
  5
50C
 10
3434.57
 20
1829.90
 30
0.000000
  70
    32
  0
VERTEX
  8
0
  5
50D
 10
3434.59
 20
1829.94
 30
0.000000
  70
    32
  0
VERTEX
  8
0
  5
50E
 10
3434.61
 20
1829.98
 30
0.000000
  70
    32
  0
VERTEX
  8
0
  5
50F
 10
3434.63
 20
1830.01
 30
0.000000
  70
    32
  0
VERTEX
  8
0
  5
510
 10
3434.66
 20
1830.05
 30
0.000000
  70
    32
  0
VERTEX
  8
0
  5
511
 10
3434.68
 20
1830.09
 30
0.000000
  70
    32
  0
VERTEX
  8
0
  5
512
 10
3434.70
 20
1830.13
 30
0.000000
  70
    32
  0
VERTEX
  8
0
  5
513
 10
3434.72
 20
1830.17
 30
0.000000
  70
    32
  0
VERTEX
  8
0
  5
514
 10
3434.74
 20
1830.20
 30
0.000000
  70
    32
  0
VERTEX
  8
0
  5
515
 10
3434.76
 20
1830.24
 30
0.000000
  70
    32
  0
VERTEX
  8
0
  5
516
 10
3434.79
 20
1830.28
 30
0.000000
  70
    32
  0
VERTEX
  8
0
  5
517
 10
3434.81
 20
1830.32
 30
0.000000
  70
    32
  0
VERTEX
  8
0
  5
518
 10
3434.83
 20
1830.36
 30
0.000000
  70
    32
  0
VERTEX
  8
0
  5
519
 10
3434.85
 20
1830.39
 30
0.000000
  70
    32
  0
VERTEX
  8
0
  5
51A
 10
3434.87
 20
1830.43
 30
0.000000
  70
    32
  0
VERTEX
  8
0
  5
51B
 10
3434.89
 20
1830.47
 30
0.000000
  70
    32
  0
VERTEX
  8
0
  5
51C
 10
3434.92
 20
1830.51
 30
0.000000
  70
    32
  0
VERTEX
  8
0
  5
51D
 10
3434.94
 20
1830.55
 30
0.000000
  70
    32
  0
VERTEX
  8
0
  5
51E
 10
3434.96
 20
1830.59
 30
0.000000
  70
    32
  0
VERTEX
  8
0
  5
51F
 10
3434.98
 20
1830.62
 30
0.000000
  70
    32
  0
VERTEX
  8
0
  5
520
 10
3435.00
 20
1830.66
 30
0.000000
  70
    32
  0
VERTEX
  8
0
  5
521
 10
3435.02
 20
1830.70
 30
0.000000
  70
    32
  0
VERTEX
  8
0
  5
522
 10
3435.04
 20
1830.74
 30
0.000000
  70
    32
  0
VERTEX
  8
0
  5
523
 10
3435.06
 20
1830.78
 30
0.000000
  70
    32
  0
VERTEX
  8
0
  5
524
 10
3435.08
 20
1830.82
 30
0.000000
  70
    32
  0
VERTEX
  8
0
  5
525
 10
3435.10
 20
1830.85
 30
0.000000
  70
    32
  0
VERTEX
  8
0
  5
526
 10
3435.13
 20
1830.89
 30
0.000000
  70
    32
  0
VERTEX
  8
0
  5
527
 10
3435.15
 20
1830.93
 30
0.000000
  70
    32
  0
VERTEX
  8
0
  5
528
 10
3435.17
 20
1830.97
 30
0.000000
  70
    32
  0
VERTEX
  8
0
  5
529
 10
3435.19
 20
1831.01
 30
0.000000
  70
    32
  0
VERTEX
  8
0
  5
52A
 10
3435.21
 20
1831.05
 30
0.000000
  70
    32
  0
VERTEX
  8
0
  5
52B
 10
3435.23
 20
1831.09
 30
0.000000
  70
    32
  0
VERTEX
  8
0
  5
52C
 10
3435.25
 20
1831.12
 30
0.000000
  70
    32
  0
VERTEX
  8
0
  5
52D
 10
3435.27
 20
1831.16
 30
0.000000
  70
    32
  0
VERTEX
  8
0
  5
52E
 10
3435.29
 20
1831.20
 30
0.000000
  70
    32
  0
VERTEX
  8
0
  5
52F
 10
3435.31
 20
1831.24
 30
0.000000
  70
    32
  0
VERTEX
  8
0
  5
530
 10
3435.33
 20
1831.28
 30
0.000000
  70
    32
  0
VERTEX
  8
0
  5
531
 10
3435.35
 20
1831.32
 30
0.000000
  70
    32
  0
VERTEX
  8
0
  5
532
 10
3435.37
 20
1831.36
 30
0.000000
  70
    32
  0
VERTEX
  8
0
  5
533
 10
3435.39
 20
1831.40
 30
0.000000
  70
    32
  0
VERTEX
  8
0
  5
534
 10
3435.41
 20
1831.44
 30
0.000000
  70
    32
  0
VERTEX
  8
0
  5
535
 10
3435.43
 20
1831.47
 30
0.000000
  70
    32
  0
VERTEX
  8
0
  5
536
 10
3435.45
 20
1831.51
 30
0.000000
  70
    32
  0
VERTEX
  8
0
  5
537
 10
3435.47
 20
1831.55
 30
0.000000
  70
    32
  0
VERTEX
  8
0
  5
538
 10
3435.49
 20
1831.59
 30
0.000000
  70
    32
  0
VERTEX
  8
0
  5
539
 10
3435.51
 20
1831.63
 30
0.000000
  70
    32
  0
VERTEX
  8
0
  5
53A
 10
3435.53
 20
1831.67
 30
0.000000
  70
    32
  0
VERTEX
  8
0
  5
53B
 10
3435.55
 20
1831.71
 30
0.000000
  70
    32
  0
VERTEX
  8
0
  5
53C
 10
3435.57
 20
1831.75
 30
0.000000
  70
    32
  0
VERTEX
  8
0
  5
53D
 10
3435.59
 20
1831.79
 30
0.000000
  70
    32
  0
VERTEX
  8
0
  5
53E
 10
3435.61
 20
1831.83
 30
0.000000
  70
    32
  0
VERTEX
  8
0
  5
53F
 10
3435.63
 20
1831.87
 30
0.000000
  70
    32
  0
VERTEX
  8
0
  5
540
 10
3435.65
 20
1831.90
 30
0.000000
  70
    32
  0
VERTEX
  8
0
  5
541
 10
3435.67
 20
1831.94
 30
0.000000
  70
    32
  0
VERTEX
  8
0
  5
542
 10
3435.69
 20
1831.98
 30
0.000000
  70
    32
  0
VERTEX
  8
0
  5
543
 10
3435.71
 20
1832.02
 30
0.000000
  70
    32
  0
VERTEX
  8
0
  5
544
 10
3435.72
 20
1832.06
 30
0.000000
  70
    32
  0
VERTEX
  8
0
  5
545
 10
3435.74
 20
1832.10
 30
0.000000
  70
    32
  0
VERTEX
  8
0
  5
546
 10
3435.76
 20
1832.14
 30
0.000000
  70
    32
  0
VERTEX
  8
0
  5
547
 10
3435.78
 20
1832.18
 30
0.000000
  70
    32
  0
VERTEX
  8
0
  5
548
 10
3435.80
 20
1832.22
 30
0.000000
  70
    32
  0
VERTEX
  8
0
  5
549
 10
3435.82
 20
1832.26
 30
0.000000
  70
    32
  0
VERTEX
  8
0
  5
54A
 10
3435.84
 20
1832.30
 30
0.000000
  70
    32
  0
VERTEX
  8
0
  5
54B
 10
3435.86
 20
1832.34
 30
0.000000
  70
    32
  0
VERTEX
  8
0
  5
54C
 10
3435.88
 20
1832.38
 30
0.000000
  70
    32
  0
VERTEX
  8
0
  5
54D
 10
3435.90
 20
1832.42
 30
0.000000
  70
    32
  0
VERTEX
  8
0
  5
54E
 10
3435.91
 20
1832.46
 30
0.000000
  70
    32
  0
VERTEX
  8
0
  5
54F
 10
3435.93
 20
1832.50
 30
0.000000
  70
    32
  0
VERTEX
  8
0
  5
550
 10
3435.95
 20
1832.54
 30
0.000000
  70
    32
  0
VERTEX
  8
0
  5
551
 10
3435.97
 20
1832.57
 30
0.000000
  70
    32
  0
VERTEX
  8
0
  5
552
 10
3435.99
 20
1832.61
 30
0.000000
  70
    32
  0
VERTEX
  8
0
  5
553
 10
3436.01
 20
1832.65
 30
0.000000
  70
    32
  0
VERTEX
  8
0
  5
554
 10
3436.03
 20
1832.69
 30
0.000000
  70
    32
  0
VERTEX
  8
0
  5
555
 10
3436.04
 20
1832.73
 30
0.000000
  70
    32
  0
VERTEX
  8
0
  5
556
 10
3436.06
 20
1832.77
 30
0.000000
  70
    32
  0
VERTEX
  8
0
  5
557
 10
3436.08
 20
1832.81
 30
0.000000
  70
    32
  0
VERTEX
  8
0
  5
558
 10
3436.10
 20
1832.85
 30
0.000000
  70
    32
  0
VERTEX
  8
0
  5
559
 10
3436.12
 20
1832.89
 30
0.000000
  70
    32
  0
VERTEX
  8
0
  5
55A
 10
3436.14
 20
1832.93
 30
0.000000
  70
    32
  0
VERTEX
  8
0
  5
55B
 10
3436.15
 20
1832.97
 30
0.000000
  70
    32
  0
VERTEX
  8
0
  5
55C
 10
3436.17
 20
1833.01
 30
0.000000
  70
    32
  0
VERTEX
  8
0
  5
55D
 10
3436.19
 20
1833.05
 30
0.000000
  70
    32
  0
VERTEX
  8
0
  5
55E
 10
3436.21
 20
1833.09
 30
0.000000
  70
    32
  0
VERTEX
  8
0
  5
55F
 10
3436.23
 20
1833.13
 30
0.000000
  70
    32
  0
VERTEX
  8
0
  5
560
 10
3436.24
 20
1833.17
 30
0.000000
  70
    32
  0
VERTEX
  8
0
  5
561
 10
3436.26
 20
1833.21
 30
0.000000
  70
    32
  0
VERTEX
  8
0
  5
562
 10
3436.28
 20
1833.25
 30
0.000000
  70
    32
  0
VERTEX
  8
0
  5
563
 10
3436.30
 20
1833.29
 30
0.000000
  70
    32
  0
VERTEX
  8
0
  5
564
 10
3436.31
 20
1833.33
 30
0.000000
  70
    32
  0
VERTEX
  8
0
  5
565
 10
3436.33
 20
1833.37
 30
0.000000
  70
    32
  0
VERTEX
  8
0
  5
566
 10
3436.35
 20
1833.41
 30
0.000000
  70
    32
  0
VERTEX
  8
0
  5
567
 10
3436.37
 20
1833.45
 30
0.000000
  70
    32
  0
VERTEX
  8
0
  5
568
 10
3436.38
 20
1833.49
 30
0.000000
  70
    32
  0
VERTEX
  8
0
  5
569
 10
3436.40
 20
1833.53
 30
0.000000
  70
    32
  0
VERTEX
  8
0
  5
56A
 10
3436.42
 20
1833.57
 30
0.000000
  70
    32
  0
VERTEX
  8
0
  5
56B
 10
3436.44
 20
1833.61
 30
0.000000
  70
    32
  0
VERTEX
  8
0
  5
56C
 10
3436.45
 20
1833.65
 30
0.000000
  70
    32
  0
VERTEX
  8
0
  5
56D
 10
3436.47
 20
1833.69
 30
0.000000
  70
    32
  0
VERTEX
  8
0
  5
56E
 10
3436.49
 20
1833.73
 30
0.000000
  70
    32
  0
VERTEX
  8
0
  5
56F
 10
3436.51
 20
1833.77
 30
0.000000
  70
    32
  0
VERTEX
  8
0
  5
570
 10
3436.52
 20
1833.82
 30
0.000000
  70
    32
  0
VERTEX
  8
0
  5
571
 10
3436.54
 20
1833.86
 30
0.000000
  70
    32
  0
VERTEX
  8
0
  5
572
 10
3436.56
 20
1833.90
 30
0.000000
  70
    32
  0
VERTEX
  8
0
  5
573
 10
3436.57
 20
1833.94
 30
0.000000
  70
    32
  0
VERTEX
  8
0
  5
574
 10
3436.59
 20
1833.98
 30
0.000000
  70
    32
  0
VERTEX
  8
0
  5
575
 10
3436.61
 20
1834.02
 30
0.000000
  70
    32
  0
VERTEX
  8
0
  5
576
 10
3436.62
 20
1834.06
 30
0.000000
  70
    32
  0
VERTEX
  8
0
  5
577
 10
3436.64
 20
1834.10
 30
0.000000
  70
    32
  0
VERTEX
  8
0
  5
578
 10
3436.66
 20
1834.14
 30
0.000000
  70
    32
  0
VERTEX
  8
0
  5
579
 10
3436.67
 20
1834.18
 30
0.000000
  70
    32
  0
VERTEX
  8
0
  5
57A
 10
3436.69
 20
1834.22
 30
0.000000
  70
    32
  0
VERTEX
  8
0
  5
57B
 10
3436.71
 20
1834.26
 30
0.000000
  70
    32
  0
VERTEX
  8
0
  5
57C
 10
3436.72
 20
1834.30
 30
0.000000
  70
    32
  0
VERTEX
  8
0
  5
57D
 10
3436.74
 20
1834.34
 30
0.000000
  70
    32
  0
VERTEX
  8
0
  5
57E
 10
3436.76
 20
1834.38
 30
0.000000
  70
    32
  0
VERTEX
  8
0
  5
57F
 10
3436.77
 20
1834.42
 30
0.000000
  70
    32
  0
VERTEX
  8
0
  5
580
 10
3436.79
 20
1834.46
 30
0.000000
  70
    32
  0
VERTEX
  8
0
  5
581
 10
3436.81
 20
1834.50
 30
0.000000
  70
    32
  0
VERTEX
  8
0
  5
582
 10
3436.82
 20
1834.54
 30
0.000000
  70
    32
  0
VERTEX
  8
0
  5
583
 10
3436.84
 20
1834.59
 30
0.000000
  70
    32
  0
VERTEX
  8
0
  5
584
 10
3436.85
 20
1834.63
 30
0.000000
  70
    32
  0
VERTEX
  8
0
  5
585
 10
3436.87
 20
1834.67
 30
0.000000
  70
    32
  0
VERTEX
  8
0
  5
586
 10
3436.89
 20
1834.71
 30
0.000000
  70
    32
  0
VERTEX
  8
0
  5
587
 10
3436.90
 20
1834.75
 30
0.000000
  70
    32
  0
VERTEX
  8
0
  5
588
 10
3436.92
 20
1834.79
 30
0.000000
  70
    32
  0
VERTEX
  8
0
  5
589
 10
3436.93
 20
1834.83
 30
0.000000
  70
    32
  0
VERTEX
  8
0
  5
58A
 10
3436.95
 20
1834.87
 30
0.000000
  70
    32
  0
VERTEX
  8
0
  5
58B
 10
3436.97
 20
1834.91
 30
0.000000
  70
    32
  0
VERTEX
  8
0
  5
58C
 10
3436.98
 20
1834.95
 30
0.000000
  70
    32
  0
VERTEX
  8
0
  5
58D
 10
3437.00
 20
1834.99
 30
0.000000
  70
    32
  0
VERTEX
  8
0
  5
58E
 10
3437.01
 20
1835.03
 30
0.000000
  70
    32
  0
VERTEX
  8
0
  5
58F
 10
3437.03
 20
1835.08
 30
0.000000
  70
    32
  0
VERTEX
  8
0
  5
590
 10
3437.04
 20
1835.12
 30
0.000000
  70
    32
  0
VERTEX
  8
0
  5
591
 10
3437.06
 20
1835.16
 30
0.000000
  70
    32
  0
VERTEX
  8
0
  5
592
 10
3437.08
 20
1835.20
 30
0.000000
  70
    32
  0
VERTEX
  8
0
  5
593
 10
3437.09
 20
1835.24
 30
0.000000
  70
    32
  0
VERTEX
  8
0
  5
594
 10
3437.11
 20
1835.28
 30
0.000000
  70
    32
  0
VERTEX
  8
0
  5
595
 10
3437.12
 20
1835.32
 30
0.000000
  70
    32
  0
VERTEX
  8
0
  5
596
 10
3437.14
 20
1835.36
 30
0.000000
  70
    32
  0
VERTEX
  8
0
  5
597
 10
3437.15
 20
1835.40
 30
0.000000
  70
    32
  0
VERTEX
  8
0
  5
598
 10
3437.17
 20
1835.44
 30
0.000000
  70
    32
  0
VERTEX
  8
0
  5
599
 10
3437.18
 20
1835.49
 30
0.000000
  70
    32
  0
VERTEX
  8
0
  5
59A
 10
3437.20
 20
1835.53
 30
0.000000
  70
    32
  0
VERTEX
  8
0
  5
59B
 10
3437.21
 20
1835.57
 30
0.000000
  70
    32
  0
VERTEX
  8
0
  5
59C
 10
3437.23
 20
1835.61
 30
0.000000
  70
    32
  0
VERTEX
  8
0
  5
59D
 10
3437.24
 20
1835.65
 30
0.000000
  70
    32
  0
VERTEX
  8
0
  5
59E
 10
3437.26
 20
1835.69
 30
0.000000
  70
    32
  0
VERTEX
  8
0
  5
59F
 10
3437.27
 20
1835.73
 30
0.000000
  70
    32
  0
VERTEX
  8
0
  5
5A0
 10
3437.29
 20
1835.77
 30
0.000000
  70
    32
  0
VERTEX
  8
0
  5
5A1
 10
3437.30
 20
1835.81
 30
0.000000
  70
    32
  0
VERTEX
  8
0
  5
5A2
 10
3437.32
 20
1835.86
 30
0.000000
  70
    32
  0
VERTEX
  8
0
  5
5A3
 10
3437.33
 20
1835.90
 30
0.000000
  70
    32
  0
VERTEX
  8
0
  5
5A4
 10
3437.35
 20
1835.94
 30
0.000000
  70
    32
  0
VERTEX
  8
0
  5
5A5
 10
3437.36
 20
1835.98
 30
0.000000
  70
    32
  0
VERTEX
  8
0
  5
5A6
 10
3437.37
 20
1836.02
 30
0.000000
  70
    32
  0
VERTEX
  8
0
  5
5A7
 10
3437.39
 20
1836.06
 30
0.000000
  70
    32
  0
VERTEX
  8
0
  5
5A8
 10
3437.40
 20
1836.10
 30
0.000000
  70
    32
  0
VERTEX
  8
0
  5
5A9
 10
3437.42
 20
1836.15
 30
0.000000
  70
    32
  0
VERTEX
  8
0
  5
5AA
 10
3437.43
 20
1836.19
 30
0.000000
  70
    32
  0
SEQEND
  8
0
  5
5AB
  0
POLYLINE
  8
0
  5
5AC
  66
     1
 10
0.000000
 20
0.000000
 30
0.000000
  70
     8
  0
VERTEX
  8
0
  5
5AD
 10
3430.96
 20
1823.87
 30
0.000000
  70
    32
  0
VERTEX
  8
0
  5
5AE
 10
3430.97
 20
1823.89
 30
0.000000
  70
    32
  0
VERTEX
  8
0
  5
5AF
 10
3430.99
 20
1823.90
 30
0.000000
  70
    32
  0
VERTEX
  8
0
  5
5B0
 10
3431.00
 20
1823.91
 30
0.000000
  70
    32
  0
VERTEX
  8
0
  5
5B1
 10
3431.02
 20
1823.93
 30
0.000000
  70
    32
  0
VERTEX
  8
0
  5
5B2
 10
3431.04
 20
1823.94
 30
0.000000
  70
    32
  0
VERTEX
  8
0
  5
5B3
 10
3431.05
 20
1823.95
 30
0.000000
  70
    32
  0
VERTEX
  8
0
  5
5B4
 10
3431.07
 20
1823.97
 30
0.000000
  70
    32
  0
VERTEX
  8
0
  5
5B5
 10
3431.08
 20
1823.98
 30
0.000000
  70
    32
  0
VERTEX
  8
0
  5
5B6
 10
3431.10
 20
1823.99
 30
0.000000
  70
    32
  0
VERTEX
  8
0
  5
5B7
 10
3431.11
 20
1824.01
 30
0.000000
  70
    32
  0
VERTEX
  8
0
  5
5B8
 10
3431.13
 20
1824.02
 30
0.000000
  70
    32
  0
VERTEX
  8
0
  5
5B9
 10
3431.15
 20
1824.03
 30
0.000000
  70
    32
  0
VERTEX
  8
0
  5
5BA
 10
3431.16
 20
1824.05
 30
0.000000
  70
    32
  0
VERTEX
  8
0
  5
5BB
 10
3431.18
 20
1824.06
 30
0.000000
  70
    32
  0
VERTEX
  8
0
  5
5BC
 10
3431.19
 20
1824.07
 30
0.000000
  70
    32
  0
VERTEX
  8
0
  5
5BD
 10
3431.21
 20
1824.09
 30
0.000000
  70
    32
  0
VERTEX
  8
0
  5
5BE
 10
3431.22
 20
1824.10
 30
0.000000
  70
    32
  0
VERTEX
  8
0
  5
5BF
 10
3431.24
 20
1824.12
 30
0.000000
  70
    32
  0
VERTEX
  8
0
  5
5C0
 10
3431.25
 20
1824.13
 30
0.000000
  70
    32
  0
VERTEX
  8
0
  5
5C1
 10
3431.27
 20
1824.14
 30
0.000000
  70
    32
  0
VERTEX
  8
0
  5
5C2
 10
3431.28
 20
1824.16
 30
0.000000
  70
    32
  0
VERTEX
  8
0
  5
5C3
 10
3431.30
 20
1824.17
 30
0.000000
  70
    32
  0
VERTEX
  8
0
  5
5C4
 10
3431.31
 20
1824.18
 30
0.000000
  70
    32
  0
VERTEX
  8
0
  5
5C5
 10
3431.33
 20
1824.20
 30
0.000000
  70
    32
  0
VERTEX
  8
0
  5
5C6
 10
3431.35
 20
1824.21
 30
0.000000
  70
    32
  0
VERTEX
  8
0
  5
5C7
 10
3431.36
 20
1824.22
 30
0.000000
  70
    32
  0
VERTEX
  8
0
  5
5C8
 10
3431.38
 20
1824.24
 30
0.000000
  70
    32
  0
VERTEX
  8
0
  5
5C9
 10
3431.39
 20
1824.25
 30
0.000000
  70
    32
  0
VERTEX
  8
0
  5
5CA
 10
3431.41
 20
1824.27
 30
0.000000
  70
    32
  0
VERTEX
  8
0
  5
5CB
 10
3431.42
 20
1824.28
 30
0.000000
  70
    32
  0
VERTEX
  8
0
  5
5CC
 10
3431.44
 20
1824.29
 30
0.000000
  70
    32
  0
VERTEX
  8
0
  5
5CD
 10
3431.45
 20
1824.31
 30
0.000000
  70
    32
  0
VERTEX
  8
0
  5
5CE
 10
3431.47
 20
1824.32
 30
0.000000
  70
    32
  0
VERTEX
  8
0
  5
5CF
 10
3431.48
 20
1824.33
 30
0.000000
  70
    32
  0
VERTEX
  8
0
  5
5D0
 10
3431.50
 20
1824.35
 30
0.000000
  70
    32
  0
VERTEX
  8
0
  5
5D1
 10
3431.51
 20
1824.36
 30
0.000000
  70
    32
  0
VERTEX
  8
0
  5
5D2
 10
3431.53
 20
1824.38
 30
0.000000
  70
    32
  0
VERTEX
  8
0
  5
5D3
 10
3431.54
 20
1824.39
 30
0.000000
  70
    32
  0
VERTEX
  8
0
  5
5D4
 10
3431.56
 20
1824.40
 30
0.000000
  70
    32
  0
VERTEX
  8
0
  5
5D5
 10
3431.57
 20
1824.42
 30
0.000000
  70
    32
  0
VERTEX
  8
0
  5
5D6
 10
3431.59
 20
1824.43
 30
0.000000
  70
    32
  0
VERTEX
  8
0
  5
5D7
 10
3431.60
 20
1824.45
 30
0.000000
  70
    32
  0
VERTEX
  8
0
  5
5D8
 10
3431.62
 20
1824.46
 30
0.000000
  70
    32
  0
VERTEX
  8
0
  5
5D9
 10
3431.63
 20
1824.47
 30
0.000000
  70
    32
  0
VERTEX
  8
0
  5
5DA
 10
3431.65
 20
1824.49
 30
0.000000
  70
    32
  0
VERTEX
  8
0
  5
5DB
 10
3431.66
 20
1824.50
 30
0.000000
  70
    32
  0
VERTEX
  8
0
  5
5DC
 10
3431.68
 20
1824.52
 30
0.000000
  70
    32
  0
VERTEX
  8
0
  5
5DD
 10
3431.69
 20
1824.53
 30
0.000000
  70
    32
  0
VERTEX
  8
0
  5
5DE
 10
3431.70
 20
1824.54
 30
0.000000
  70
    32
  0
VERTEX
  8
0
  5
5DF
 10
3431.72
 20
1824.56
 30
0.000000
  70
    32
  0
VERTEX
  8
0
  5
5E0
 10
3431.73
 20
1824.57
 30
0.000000
  70
    32
  0
VERTEX
  8
0
  5
5E1
 10
3431.75
 20
1824.59
 30
0.000000
  70
    32
  0
VERTEX
  8
0
  5
5E2
 10
3431.76
 20
1824.60
 30
0.000000
  70
    32
  0
VERTEX
  8
0
  5
5E3
 10
3431.78
 20
1824.62
 30
0.000000
  70
    32
  0
VERTEX
  8
0
  5
5E4
 10
3431.79
 20
1824.63
 30
0.000000
  70
    32
  0
VERTEX
  8
0
  5
5E5
 10
3431.81
 20
1824.64
 30
0.000000
  70
    32
  0
VERTEX
  8
0
  5
5E6
 10
3431.82
 20
1824.66
 30
0.000000
  70
    32
  0
VERTEX
  8
0
  5
5E7
 10
3431.84
 20
1824.67
 30
0.000000
  70
    32
  0
VERTEX
  8
0
  5
5E8
 10
3431.85
 20
1824.69
 30
0.000000
  70
    32
  0
VERTEX
  8
0
  5
5E9
 10
3431.87
 20
1824.70
 30
0.000000
  70
    32
  0
VERTEX
  8
0
  5
5EA
 10
3431.88
 20
1824.72
 30
0.000000
  70
    32
  0
VERTEX
  8
0
  5
5EB
 10
3431.89
 20
1824.73
 30
0.000000
  70
    32
  0
VERTEX
  8
0
  5
5EC
 10
3431.91
 20
1824.74
 30
0.000000
  70
    32
  0
VERTEX
  8
0
  5
5ED
 10
3431.92
 20
1824.76
 30
0.000000
  70
    32
  0
VERTEX
  8
0
  5
5EE
 10
3431.94
 20
1824.77
 30
0.000000
  70
    32
  0
VERTEX
  8
0
  5
5EF
 10
3431.95
 20
1824.79
 30
0.000000
  70
    32
  0
VERTEX
  8
0
  5
5F0
 10
3431.97
 20
1824.80
 30
0.000000
  70
    32
  0
VERTEX
  8
0
  5
5F1
 10
3431.98
 20
1824.82
 30
0.000000
  70
    32
  0
VERTEX
  8
0
  5
5F2
 10
3432.00
 20
1824.83
 30
0.000000
  70
    32
  0
VERTEX
  8
0
  5
5F3
 10
3432.01
 20
1824.85
 30
0.000000
  70
    32
  0
VERTEX
  8
0
  5
5F4
 10
3432.02
 20
1824.86
 30
0.000000
  70
    32
  0
VERTEX
  8
0
  5
5F5
 10
3432.04
 20
1824.87
 30
0.000000
  70
    32
  0
VERTEX
  8
0
  5
5F6
 10
3432.05
 20
1824.89
 30
0.000000
  70
    32
  0
VERTEX
  8
0
  5
5F7
 10
3432.07
 20
1824.90
 30
0.000000
  70
    32
  0
VERTEX
  8
0
  5
5F8
 10
3432.08
 20
1824.92
 30
0.000000
  70
    32
  0
VERTEX
  8
0
  5
5F9
 10
3432.10
 20
1824.93
 30
0.000000
  70
    32
  0
VERTEX
  8
0
  5
5FA
 10
3432.11
 20
1824.95
 30
0.000000
  70
    32
  0
VERTEX
  8
0
  5
5FB
 10
3432.12
 20
1824.96
 30
0.000000
  70
    32
  0
VERTEX
  8
0
  5
5FC
 10
3432.14
 20
1824.98
 30
0.000000
  70
    32
  0
VERTEX
  8
0
  5
5FD
 10
3432.15
 20
1824.99
 30
0.000000
  70
    32
  0
VERTEX
  8
0
  5
5FE
 10
3432.17
 20
1825.01
 30
0.000000
  70
    32
  0
VERTEX
  8
0
  5
5FF
 10
3432.18
 20
1825.02
 30
0.000000
  70
    32
  0
VERTEX
  8
0
  5
600
 10
3432.19
 20
1825.03
 30
0.000000
  70
    32
  0
VERTEX
  8
0
  5
601
 10
3432.21
 20
1825.05
 30
0.000000
  70
    32
  0
VERTEX
  8
0
  5
602
 10
3432.22
 20
1825.06
 30
0.000000
  70
    32
  0
VERTEX
  8
0
  5
603
 10
3432.24
 20
1825.08
 30
0.000000
  70
    32
  0
VERTEX
  8
0
  5
604
 10
3432.25
 20
1825.09
 30
0.000000
  70
    32
  0
VERTEX
  8
0
  5
605
 10
3432.26
 20
1825.11
 30
0.000000
  70
    32
  0
VERTEX
  8
0
  5
606
 10
3432.28
 20
1825.12
 30
0.000000
  70
    32
  0
VERTEX
  8
0
  5
607
 10
3432.29
 20
1825.14
 30
0.000000
  70
    32
  0
VERTEX
  8
0
  5
608
 10
3432.31
 20
1825.15
 30
0.000000
  70
    32
  0
VERTEX
  8
0
  5
609
 10
3432.32
 20
1825.17
 30
0.000000
  70
    32
  0
VERTEX
  8
0
  5
60A
 10
3432.33
 20
1825.18
 30
0.000000
  70
    32
  0
VERTEX
  8
0
  5
60B
 10
3432.35
 20
1825.20
 30
0.000000
  70
    32
  0
VERTEX
  8
0
  5
60C
 10
3432.36
 20
1825.21
 30
0.000000
  70
    32
  0
VERTEX
  8
0
  5
60D
 10
3432.38
 20
1825.23
 30
0.000000
  70
    32
  0
VERTEX
  8
0
  5
60E
 10
3432.39
 20
1825.24
 30
0.000000
  70
    32
  0
VERTEX
  8
0
  5
60F
 10
3432.40
 20
1825.26
 30
0.000000
  70
    32
  0
VERTEX
  8
0
  5
610
 10
3432.42
 20
1825.27
 30
0.000000
  70
    32
  0
VERTEX
  8
0
  5
611
 10
3432.43
 20
1825.29
 30
0.000000
  70
    32
  0
VERTEX
  8
0
  5
612
 10
3432.44
 20
1825.30
 30
0.000000
  70
    32
  0
VERTEX
  8
0
  5
613
 10
3432.46
 20
1825.32
 30
0.000000
  70
    32
  0
VERTEX
  8
0
  5
614
 10
3432.47
 20
1825.33
 30
0.000000
  70
    32
  0
VERTEX
  8
0
  5
615
 10
3432.49
 20
1825.35
 30
0.000000
  70
    32
  0
VERTEX
  8
0
  5
616
 10
3432.50
 20
1825.36
 30
0.000000
  70
    32
  0
VERTEX
  8
0
  5
617
 10
3432.51
 20
1825.38
 30
0.000000
  70
    32
  0
VERTEX
  8
0
  5
618
 10
3432.53
 20
1825.39
 30
0.000000
  70
    32
  0
VERTEX
  8
0
  5
619
 10
3432.54
 20
1825.41
 30
0.000000
  70
    32
  0
VERTEX
  8
0
  5
61A
 10
3432.55
 20
1825.42
 30
0.000000
  70
    32
  0
VERTEX
  8
0
  5
61B
 10
3432.57
 20
1825.44
 30
0.000000
  70
    32
  0
VERTEX
  8
0
  5
61C
 10
3432.58
 20
1825.45
 30
0.000000
  70
    32
  0
VERTEX
  8
0
  5
61D
 10
3432.59
 20
1825.47
 30
0.000000
  70
    32
  0
VERTEX
  8
0
  5
61E
 10
3432.61
 20
1825.48
 30
0.000000
  70
    32
  0
VERTEX
  8
0
  5
61F
 10
3432.62
 20
1825.50
 30
0.000000
  70
    32
  0
VERTEX
  8
0
  5
620
 10
3432.64
 20
1825.51
 30
0.000000
  70
    32
  0
VERTEX
  8
0
  5
621
 10
3432.65
 20
1825.53
 30
0.000000
  70
    32
  0
VERTEX
  8
0
  5
622
 10
3432.66
 20
1825.54
 30
0.000000
  70
    32
  0
VERTEX
  8
0
  5
623
 10
3432.68
 20
1825.56
 30
0.000000
  70
    32
  0
VERTEX
  8
0
  5
624
 10
3432.69
 20
1825.57
 30
0.000000
  70
    32
  0
VERTEX
  8
0
  5
625
 10
3432.70
 20
1825.59
 30
0.000000
  70
    32
  0
VERTEX
  8
0
  5
626
 10
3432.72
 20
1825.60
 30
0.000000
  70
    32
  0
VERTEX
  8
0
  5
627
 10
3432.73
 20
1825.62
 30
0.000000
  70
    32
  0
VERTEX
  8
0
  5
628
 10
3432.74
 20
1825.63
 30
0.000000
  70
    32
  0
VERTEX
  8
0
  5
629
 10
3432.76
 20
1825.65
 30
0.000000
  70
    32
  0
VERTEX
  8
0
  5
62A
 10
3432.77
 20
1825.66
 30
0.000000
  70
    32
  0
VERTEX
  8
0
  5
62B
 10
3432.78
 20
1825.68
 30
0.000000
  70
    32
  0
VERTEX
  8
0
  5
62C
 10
3432.80
 20
1825.69
 30
0.000000
  70
    32
  0
VERTEX
  8
0
  5
62D
 10
3432.81
 20
1825.71
 30
0.000000
  70
    32
  0
VERTEX
  8
0
  5
62E
 10
3432.82
 20
1825.72
 30
0.000000
  70
    32
  0
VERTEX
  8
0
  5
62F
 10
3432.83
 20
1825.74
 30
0.000000
  70
    32
  0
VERTEX
  8
0
  5
630
 10
3432.85
 20
1825.75
 30
0.000000
  70
    32
  0
VERTEX
  8
0
  5
631
 10
3432.86
 20
1825.77
 30
0.000000
  70
    32
  0
VERTEX
  8
0
  5
632
 10
3432.87
 20
1825.78
 30
0.000000
  70
    32
  0
VERTEX
  8
0
  5
633
 10
3432.89
 20
1825.80
 30
0.000000
  70
    32
  0
VERTEX
  8
0
  5
634
 10
3432.90
 20
1825.81
 30
0.000000
  70
    32
  0
VERTEX
  8
0
  5
635
 10
3432.91
 20
1825.83
 30
0.000000
  70
    32
  0
VERTEX
  8
0
  5
636
 10
3432.93
 20
1825.84
 30
0.000000
  70
    32
  0
VERTEX
  8
0
  5
637
 10
3432.94
 20
1825.86
 30
0.000000
  70
    32
  0
VERTEX
  8
0
  5
638
 10
3432.95
 20
1825.87
 30
0.000000
  70
    32
  0
VERTEX
  8
0
  5
639
 10
3432.97
 20
1825.89
 30
0.000000
  70
    32
  0
VERTEX
  8
0
  5
63A
 10
3432.98
 20
1825.91
 30
0.000000
  70
    32
  0
VERTEX
  8
0
  5
63B
 10
3432.99
 20
1825.92
 30
0.000000
  70
    32
  0
VERTEX
  8
0
  5
63C
 10
3433.00
 20
1825.94
 30
0.000000
  70
    32
  0
VERTEX
  8
0
  5
63D
 10
3433.02
 20
1825.95
 30
0.000000
  70
    32
  0
VERTEX
  8
0
  5
63E
 10
3433.03
 20
1825.97
 30
0.000000
  70
    32
  0
VERTEX
  8
0
  5
63F
 10
3433.04
 20
1825.98
 30
0.000000
  70
    32
  0
VERTEX
  8
0
  5
640
 10
3433.06
 20
1826.00
 30
0.000000
  70
    32
  0
VERTEX
  8
0
  5
641
 10
3433.07
 20
1826.01
 30
0.000000
  70
    32
  0
VERTEX
  8
0
  5
642
 10
3433.08
 20
1826.03
 30
0.000000
  70
    32
  0
VERTEX
  8
0
  5
643
 10
3433.10
 20
1826.04
 30
0.000000
  70
    32
  0
VERTEX
  8
0
  5
644
 10
3433.11
 20
1826.06
 30
0.000000
  70
    32
  0
VERTEX
  8
0
  5
645
 10
3433.12
 20
1826.07
 30
0.000000
  70
    32
  0
VERTEX
  8
0
  5
646
 10
3433.13
 20
1826.09
 30
0.000000
  70
    32
  0
VERTEX
  8
0
  5
647
 10
3433.15
 20
1826.11
 30
0.000000
  70
    32
  0
VERTEX
  8
0
  5
648
 10
3433.16
 20
1826.12
 30
0.000000
  70
    32
  0
VERTEX
  8
0
  5
649
 10
3433.17
 20
1826.14
 30
0.000000
  70
    32
  0
VERTEX
  8
0
  5
64A
 10
3433.18
 20
1826.15
 30
0.000000
  70
    32
  0
VERTEX
  8
0
  5
64B
 10
3433.20
 20
1826.17
 30
0.000000
  70
    32
  0
VERTEX
  8
0
  5
64C
 10
3433.21
 20
1826.18
 30
0.000000
  70
    32
  0
VERTEX
  8
0
  5
64D
 10
3433.22
 20
1826.20
 30
0.000000
  70
    32
  0
VERTEX
  8
0
  5
64E
 10
3433.24
 20
1826.21
 30
0.000000
  70
    32
  0
VERTEX
  8
0
  5
64F
 10
3433.25
 20
1826.23
 30
0.000000
  70
    32
  0
VERTEX
  8
0
  5
650
 10
3433.26
 20
1826.25
 30
0.000000
  70
    32
  0
VERTEX
  8
0
  5
651
 10
3433.27
 20
1826.26
 30
0.000000
  70
    32
  0
VERTEX
  8
0
  5
652
 10
3433.29
 20
1826.28
 30
0.000000
  70
    32
  0
VERTEX
  8
0
  5
653
 10
3433.30
 20
1826.29
 30
0.000000
  70
    32
  0
VERTEX
  8
0
  5
654
 10
3433.31
 20
1826.31
 30
0.000000
  70
    32
  0
VERTEX
  8
0
  5
655
 10
3433.32
 20
1826.32
 30
0.000000
  70
    32
  0
VERTEX
  8
0
  5
656
 10
3433.34
 20
1826.34
 30
0.000000
  70
    32
  0
VERTEX
  8
0
  5
657
 10
3433.35
 20
1826.35
 30
0.000000
  70
    32
  0
VERTEX
  8
0
  5
658
 10
3433.36
 20
1826.37
 30
0.000000
  70
    32
  0
VERTEX
  8
0
  5
659
 10
3433.37
 20
1826.39
 30
0.000000
  70
    32
  0
VERTEX
  8
0
  5
65A
 10
3433.39
 20
1826.40
 30
0.000000
  70
    32
  0
VERTEX
  8
0
  5
65B
 10
3433.40
 20
1826.42
 30
0.000000
  70
    32
  0
VERTEX
  8
0
  5
65C
 10
3433.41
 20
1826.43
 30
0.000000
  70
    32
  0
VERTEX
  8
0
  5
65D
 10
3433.42
 20
1826.45
 30
0.000000
  70
    32
  0
VERTEX
  8
0
  5
65E
 10
3433.44
 20
1826.46
 30
0.000000
  70
    32
  0
VERTEX
  8
0
  5
65F
 10
3433.45
 20
1826.48
 30
0.000000
  70
    32
  0
VERTEX
  8
0
  5
660
 10
3433.46
 20
1826.50
 30
0.000000
  70
    32
  0
VERTEX
  8
0
  5
661
 10
3433.47
 20
1826.51
 30
0.000000
  70
    32
  0
VERTEX
  8
0
  5
662
 10
3433.49
 20
1826.53
 30
0.000000
  70
    32
  0
VERTEX
  8
0
  5
663
 10
3433.50
 20
1826.54
 30
0.000000
  70
    32
  0
VERTEX
  8
0
  5
664
 10
3433.51
 20
1826.56
 30
0.000000
  70
    32
  0
VERTEX
  8
0
  5
665
 10
3433.52
 20
1826.57
 30
0.000000
  70
    32
  0
VERTEX
  8
0
  5
666
 10
3433.54
 20
1826.59
 30
0.000000
  70
    32
  0
VERTEX
  8
0
  5
667
 10
3433.55
 20
1826.61
 30
0.000000
  70
    32
  0
VERTEX
  8
0
  5
668
 10
3433.56
 20
1826.62
 30
0.000000
  70
    32
  0
VERTEX
  8
0
  5
669
 10
3433.57
 20
1826.64
 30
0.000000
  70
    32
  0
VERTEX
  8
0
  5
66A
 10
3433.58
 20
1826.65
 30
0.000000
  70
    32
  0
VERTEX
  8
0
  5
66B
 10
3433.60
 20
1826.67
 30
0.000000
  70
    32
  0
VERTEX
  8
0
  5
66C
 10
3433.61
 20
1826.69
 30
0.000000
  70
    32
  0
VERTEX
  8
0
  5
66D
 10
3433.62
 20
1826.70
 30
0.000000
  70
    32
  0
VERTEX
  8
0
  5
66E
 10
3433.63
 20
1826.72
 30
0.000000
  70
    32
  0
VERTEX
  8
0
  5
66F
 10
3433.65
 20
1826.73
 30
0.000000
  70
    32
  0
VERTEX
  8
0
  5
670
 10
3433.66
 20
1826.75
 30
0.000000
  70
    32
  0
VERTEX
  8
0
  5
671
 10
3433.67
 20
1826.77
 30
0.000000
  70
    32
  0
VERTEX
  8
0
  5
672
 10
3433.68
 20
1826.78
 30
0.000000
  70
    32
  0
VERTEX
  8
0
  5
673
 10
3433.69
 20
1826.80
 30
0.000000
  70
    32
  0
VERTEX
  8
0
  5
674
 10
3433.71
 20
1826.81
 30
0.000000
  70
    32
  0
VERTEX
  8
0
  5
675
 10
3433.72
 20
1826.83
 30
0.000000
  70
    32
  0
VERTEX
  8
0
  5
676
 10
3433.73
 20
1826.84
 30
0.000000
  70
    32
  0
VERTEX
  8
0
  5
677
 10
3433.74
 20
1826.86
 30
0.000000
  70
    32
  0
VERTEX
  8
0
  5
678
 10
3433.75
 20
1826.88
 30
0.000000
  70
    32
  0
VERTEX
  8
0
  5
679
 10
3433.77
 20
1826.89
 30
0.000000
  70
    32
  0
VERTEX
  8
0
  5
67A
 10
3433.78
 20
1826.91
 30
0.000000
  70
    32
  0
VERTEX
  8
0
  5
67B
 10
3433.79
 20
1826.92
 30
0.000000
  70
    32
  0
VERTEX
  8
0
  5
67C
 10
3433.80
 20
1826.94
 30
0.000000
  70
    32
  0
VERTEX
  8
0
  5
67D
 10
3433.81
 20
1826.96
 30
0.000000
  70
    32
  0
VERTEX
  8
0
  5
67E
 10
3433.83
 20
1826.97
 30
0.000000
  70
    32
  0
VERTEX
  8
0
  5
67F
 10
3433.84
 20
1826.99
 30
0.000000
  70
    32
  0
VERTEX
  8
0
  5
680
 10
3433.85
 20
1827.00
 30
0.000000
  70
    32
  0
VERTEX
  8
0
  5
681
 10
3433.86
 20
1827.02
 30
0.000000
  70
    32
  0
VERTEX
  8
0
  5
682
 10
3433.87
 20
1827.04
 30
0.000000
  70
    32
  0
VERTEX
  8
0
  5
683
 10
3433.89
 20
1827.05
 30
0.000000
  70
    32
  0
VERTEX
  8
0
  5
684
 10
3433.90
 20
1827.07
 30
0.000000
  70
    32
  0
VERTEX
  8
0
  5
685
 10
3433.91
 20
1827.08
 30
0.000000
  70
    32
  0
VERTEX
  8
0
  5
686
 10
3433.92
 20
1827.10
 30
0.000000
  70
    32
  0
VERTEX
  8
0
  5
687
 10
3433.93
 20
1827.12
 30
0.000000
  70
    32
  0
VERTEX
  8
0
  5
688
 10
3433.95
 20
1827.13
 30
0.000000
  70
    32
  0
VERTEX
  8
0
  5
689
 10
3433.96
 20
1827.15
 30
0.000000
  70
    32
  0
VERTEX
  8
0
  5
68A
 10
3433.97
 20
1827.17
 30
0.000000
  70
    32
  0
VERTEX
  8
0
  5
68B
 10
3433.98
 20
1827.18
 30
0.000000
  70
    32
  0
VERTEX
  8
0
  5
68C
 10
3433.99
 20
1827.20
 30
0.000000
  70
    32
  0
VERTEX
  8
0
  5
68D
 10
3434.00
 20
1827.21
 30
0.000000
  70
    32
  0
VERTEX
  8
0
  5
68E
 10
3434.02
 20
1827.23
 30
0.000000
  70
    32
  0
VERTEX
  8
0
  5
68F
 10
3434.03
 20
1827.25
 30
0.000000
  70
    32
  0
VERTEX
  8
0
  5
690
 10
3434.04
 20
1827.26
 30
0.000000
  70
    32
  0
VERTEX
  8
0
  5
691
 10
3434.05
 20
1827.28
 30
0.000000
  70
    32
  0
VERTEX
  8
0
  5
692
 10
3434.06
 20
1827.29
 30
0.000000
  70
    32
  0
VERTEX
  8
0
  5
693
 10
3434.07
 20
1827.31
 30
0.000000
  70
    32
  0
VERTEX
  8
0
  5
694
 10
3434.09
 20
1827.33
 30
0.000000
  70
    32
  0
VERTEX
  8
0
  5
695
 10
3434.10
 20
1827.34
 30
0.000000
  70
    32
  0
VERTEX
  8
0
  5
696
 10
3434.11
 20
1827.36
 30
0.000000
  70
    32
  0
VERTEX
  8
0
  5
697
 10
3434.12
 20
1827.38
 30
0.000000
  70
    32
  0
VERTEX
  8
0
  5
698
 10
3434.13
 20
1827.39
 30
0.000000
  70
    32
  0
VERTEX
  8
0
  5
699
 10
3434.14
 20
1827.41
 30
0.000000
  70
    32
  0
VERTEX
  8
0
  5
69A
 10
3434.16
 20
1827.42
 30
0.000000
  70
    32
  0
VERTEX
  8
0
  5
69B
 10
3434.17
 20
1827.44
 30
0.000000
  70
    32
  0
VERTEX
  8
0
  5
69C
 10
3434.18
 20
1827.46
 30
0.000000
  70
    32
  0
VERTEX
  8
0
  5
69D
 10
3434.19
 20
1827.47
 30
0.000000
  70
    32
  0
VERTEX
  8
0
  5
69E
 10
3434.20
 20
1827.49
 30
0.000000
  70
    32
  0
VERTEX
  8
0
  5
69F
 10
3434.21
 20
1827.51
 30
0.000000
  70
    32
  0
VERTEX
  8
0
  5
6A0
 10
3434.23
 20
1827.52
 30
0.000000
  70
    32
  0
VERTEX
  8
0
  5
6A1
 10
3434.24
 20
1827.54
 30
0.000000
  70
    32
  0
VERTEX
  8
0
  5
6A2
 10
3434.25
 20
1827.55
 30
0.000000
  70
    32
  0
VERTEX
  8
0
  5
6A3
 10
3434.26
 20
1827.57
 30
0.000000
  70
    32
  0
VERTEX
  8
0
  5
6A4
 10
3434.27
 20
1827.59
 30
0.000000
  70
    32
  0
VERTEX
  8
0
  5
6A5
 10
3434.28
 20
1827.60
 30
0.000000
  70
    32
  0
VERTEX
  8
0
  5
6A6
 10
3434.29
 20
1827.62
 30
0.000000
  70
    32
  0
VERTEX
  8
0
  5
6A7
 10
3434.31
 20
1827.64
 30
0.000000
  70
    32
  0
VERTEX
  8
0
  5
6A8
 10
3434.32
 20
1827.65
 30
0.000000
  70
    32
  0
VERTEX
  8
0
  5
6A9
 10
3434.33
 20
1827.67
 30
0.000000
  70
    32
  0
VERTEX
  8
0
  5
6AA
 10
3434.34
 20
1827.69
 30
0.000000
  70
    32
  0
VERTEX
  8
0
  5
6AB
 10
3434.35
 20
1827.70
 30
0.000000
  70
    32
  0
VERTEX
  8
0
  5
6AC
 10
3434.36
 20
1827.72
 30
0.000000
  70
    32
  0
VERTEX
  8
0
  5
6AD
 10
3434.37
 20
1827.73
 30
0.000000
  70
    32
  0
VERTEX
  8
0
  5
6AE
 10
3434.38
 20
1827.75
 30
0.000000
  70
    32
  0
VERTEX
  8
0
  5
6AF
 10
3434.40
 20
1827.77
 30
0.000000
  70
    32
  0
VERTEX
  8
0
  5
6B0
 10
3434.41
 20
1827.78
 30
0.000000
  70
    32
  0
VERTEX
  8
0
  5
6B1
 10
3434.42
 20
1827.80
 30
0.000000
  70
    32
  0
VERTEX
  8
0
  5
6B2
 10
3434.43
 20
1827.82
 30
0.000000
  70
    32
  0
VERTEX
  8
0
  5
6B3
 10
3434.44
 20
1827.83
 30
0.000000
  70
    32
  0
VERTEX
  8
0
  5
6B4
 10
3434.45
 20
1827.85
 30
0.000000
  70
    32
  0
VERTEX
  8
0
  5
6B5
 10
3434.46
 20
1827.87
 30
0.000000
  70
    32
  0
VERTEX
  8
0
  5
6B6
 10
3434.47
 20
1827.88
 30
0.000000
  70
    32
  0
VERTEX
  8
0
  5
6B7
 10
3434.49
 20
1827.90
 30
0.000000
  70
    32
  0
VERTEX
  8
0
  5
6B8
 10
3434.50
 20
1827.92
 30
0.000000
  70
    32
  0
VERTEX
  8
0
  5
6B9
 10
3434.51
 20
1827.93
 30
0.000000
  70
    32
  0
VERTEX
  8
0
  5
6BA
 10
3434.52
 20
1827.95
 30
0.000000
  70
    32
  0
VERTEX
  8
0
  5
6BB
 10
3434.53
 20
1827.97
 30
0.000000
  70
    32
  0
VERTEX
  8
0
  5
6BC
 10
3434.54
 20
1827.98
 30
0.000000
  70
    32
  0
VERTEX
  8
0
  5
6BD
 10
3434.55
 20
1828.00
 30
0.000000
  70
    32
  0
VERTEX
  8
0
  5
6BE
 10
3434.56
 20
1828.01
 30
0.000000
  70
    32
  0
VERTEX
  8
0
  5
6BF
 10
3434.57
 20
1828.03
 30
0.000000
  70
    32
  0
VERTEX
  8
0
  5
6C0
 10
3434.59
 20
1828.05
 30
0.000000
  70
    32
  0
VERTEX
  8
0
  5
6C1
 10
3434.60
 20
1828.06
 30
0.000000
  70
    32
  0
VERTEX
  8
0
  5
6C2
 10
3434.61
 20
1828.08
 30
0.000000
  70
    32
  0
VERTEX
  8
0
  5
6C3
 10
3434.62
 20
1828.10
 30
0.000000
  70
    32
  0
VERTEX
  8
0
  5
6C4
 10
3434.63
 20
1828.11
 30
0.000000
  70
    32
  0
VERTEX
  8
0
  5
6C5
 10
3434.64
 20
1828.13
 30
0.000000
  70
    32
  0
VERTEX
  8
0
  5
6C6
 10
3434.65
 20
1828.15
 30
0.000000
  70
    32
  0
VERTEX
  8
0
  5
6C7
 10
3434.66
 20
1828.16
 30
0.000000
  70
    32
  0
VERTEX
  8
0
  5
6C8
 10
3434.67
 20
1828.18
 30
0.000000
  70
    32
  0
VERTEX
  8
0
  5
6C9
 10
3434.68
 20
1828.20
 30
0.000000
  70
    32
  0
VERTEX
  8
0
  5
6CA
 10
3434.70
 20
1828.21
 30
0.000000
  70
    32
  0
VERTEX
  8
0
  5
6CB
 10
3434.71
 20
1828.23
 30
0.000000
  70
    32
  0
VERTEX
  8
0
  5
6CC
 10
3434.72
 20
1828.25
 30
0.000000
  70
    32
  0
VERTEX
  8
0
  5
6CD
 10
3434.73
 20
1828.26
 30
0.000000
  70
    32
  0
VERTEX
  8
0
  5
6CE
 10
3434.74
 20
1828.28
 30
0.000000
  70
    32
  0
VERTEX
  8
0
  5
6CF
 10
3434.75
 20
1828.30
 30
0.000000
  70
    32
  0
VERTEX
  8
0
  5
6D0
 10
3434.76
 20
1828.31
 30
0.000000
  70
    32
  0
VERTEX
  8
0
  5
6D1
 10
3434.77
 20
1828.33
 30
0.000000
  70
    32
  0
VERTEX
  8
0
  5
6D2
 10
3434.78
 20
1828.35
 30
0.000000
  70
    32
  0
VERTEX
  8
0
  5
6D3
 10
3434.79
 20
1828.36
 30
0.000000
  70
    32
  0
VERTEX
  8
0
  5
6D4
 10
3434.80
 20
1828.38
 30
0.000000
  70
    32
  0
VERTEX
  8
0
  5
6D5
 10
3434.81
 20
1828.40
 30
0.000000
  70
    32
  0
VERTEX
  8
0
  5
6D6
 10
3434.83
 20
1828.41
 30
0.000000
  70
    32
  0
VERTEX
  8
0
  5
6D7
 10
3434.84
 20
1828.43
 30
0.000000
  70
    32
  0
VERTEX
  8
0
  5
6D8
 10
3434.85
 20
1828.45
 30
0.000000
  70
    32
  0
VERTEX
  8
0
  5
6D9
 10
3434.86
 20
1828.46
 30
0.000000
  70
    32
  0
VERTEX
  8
0
  5
6DA
 10
3434.87
 20
1828.48
 30
0.000000
  70
    32
  0
VERTEX
  8
0
  5
6DB
 10
3434.88
 20
1828.50
 30
0.000000
  70
    32
  0
VERTEX
  8
0
  5
6DC
 10
3434.89
 20
1828.51
 30
0.000000
  70
    32
  0
VERTEX
  8
0
  5
6DD
 10
3434.90
 20
1828.53
 30
0.000000
  70
    32
  0
VERTEX
  8
0
  5
6DE
 10
3434.91
 20
1828.55
 30
0.000000
  70
    32
  0
VERTEX
  8
0
  5
6DF
 10
3434.92
 20
1828.56
 30
0.000000
  70
    32
  0
VERTEX
  8
0
  5
6E0
 10
3434.93
 20
1828.58
 30
0.000000
  70
    32
  0
VERTEX
  8
0
  5
6E1
 10
3434.94
 20
1828.60
 30
0.000000
  70
    32
  0
VERTEX
  8
0
  5
6E2
 10
3434.95
 20
1828.61
 30
0.000000
  70
    32
  0
VERTEX
  8
0
  5
6E3
 10
3434.96
 20
1828.63
 30
0.000000
  70
    32
  0
VERTEX
  8
0
  5
6E4
 10
3434.97
 20
1828.65
 30
0.000000
  70
    32
  0
VERTEX
  8
0
  5
6E5
 10
3434.99
 20
1828.67
 30
0.000000
  70
    32
  0
VERTEX
  8
0
  5
6E6
 10
3435.00
 20
1828.68
 30
0.000000
  70
    32
  0
VERTEX
  8
0
  5
6E7
 10
3435.01
 20
1828.70
 30
0.000000
  70
    32
  0
VERTEX
  8
0
  5
6E8
 10
3435.02
 20
1828.72
 30
0.000000
  70
    32
  0
VERTEX
  8
0
  5
6E9
 10
3435.03
 20
1828.73
 30
0.000000
  70
    32
  0
VERTEX
  8
0
  5
6EA
 10
3435.04
 20
1828.75
 30
0.000000
  70
    32
  0
VERTEX
  8
0
  5
6EB
 10
3435.05
 20
1828.77
 30
0.000000
  70
    32
  0
VERTEX
  8
0
  5
6EC
 10
3435.06
 20
1828.78
 30
0.000000
  70
    32
  0
VERTEX
  8
0
  5
6ED
 10
3435.07
 20
1828.80
 30
0.000000
  70
    32
  0
VERTEX
  8
0
  5
6EE
 10
3435.08
 20
1828.82
 30
0.000000
  70
    32
  0
VERTEX
  8
0
  5
6EF
 10
3435.09
 20
1828.83
 30
0.000000
  70
    32
  0
VERTEX
  8
0
  5
6F0
 10
3435.10
 20
1828.85
 30
0.000000
  70
    32
  0
VERTEX
  8
0
  5
6F1
 10
3435.11
 20
1828.87
 30
0.000000
  70
    32
  0
VERTEX
  8
0
  5
6F2
 10
3435.12
 20
1828.88
 30
0.000000
  70
    32
  0
VERTEX
  8
0
  5
6F3
 10
3435.13
 20
1828.90
 30
0.000000
  70
    32
  0
VERTEX
  8
0
  5
6F4
 10
3435.14
 20
1828.92
 30
0.000000
  70
    32
  0
VERTEX
  8
0
  5
6F5
 10
3435.15
 20
1828.93
 30
0.000000
  70
    32
  0
VERTEX
  8
0
  5
6F6
 10
3435.16
 20
1828.95
 30
0.000000
  70
    32
  0
VERTEX
  8
0
  5
6F7
 10
3435.17
 20
1828.97
 30
0.000000
  70
    32
  0
VERTEX
  8
0
  5
6F8
 10
3435.18
 20
1828.99
 30
0.000000
  70
    32
  0
VERTEX
  8
0
  5
6F9
 10
3435.19
 20
1829.00
 30
0.000000
  70
    32
  0
VERTEX
  8
0
  5
6FA
 10
3435.20
 20
1829.02
 30
0.000000
  70
    32
  0
VERTEX
  8
0
  5
6FB
 10
3435.21
 20
1829.04
 30
0.000000
  70
    32
  0
VERTEX
  8
0
  5
6FC
 10
3435.23
 20
1829.05
 30
0.000000
  70
    32
  0
VERTEX
  8
0
  5
6FD
 10
3435.24
 20
1829.07
 30
0.000000
  70
    32
  0
VERTEX
  8
0
  5
6FE
 10
3435.25
 20
1829.09
 30
0.000000
  70
    32
  0
VERTEX
  8
0
  5
6FF
 10
3435.26
 20
1829.10
 30
0.000000
  70
    32
  0
VERTEX
  8
0
  5
700
 10
3435.27
 20
1829.12
 30
0.000000
  70
    32
  0
VERTEX
  8
0
  5
701
 10
3435.28
 20
1829.14
 30
0.000000
  70
    32
  0
VERTEX
  8
0
  5
702
 10
3435.29
 20
1829.16
 30
0.000000
  70
    32
  0
VERTEX
  8
0
  5
703
 10
3435.30
 20
1829.17
 30
0.000000
  70
    32
  0
VERTEX
  8
0
  5
704
 10
3435.31
 20
1829.19
 30
0.000000
  70
    32
  0
VERTEX
  8
0
  5
705
 10
3435.32
 20
1829.21
 30
0.000000
  70
    32
  0
VERTEX
  8
0
  5
706
 10
3435.33
 20
1829.22
 30
0.000000
  70
    32
  0
VERTEX
  8
0
  5
707
 10
3435.34
 20
1829.24
 30
0.000000
  70
    32
  0
VERTEX
  8
0
  5
708
 10
3435.35
 20
1829.26
 30
0.000000
  70
    32
  0
VERTEX
  8
0
  5
709
 10
3435.36
 20
1829.27
 30
0.000000
  70
    32
  0
VERTEX
  8
0
  5
70A
 10
3435.37
 20
1829.29
 30
0.000000
  70
    32
  0
VERTEX
  8
0
  5
70B
 10
3435.38
 20
1829.31
 30
0.000000
  70
    32
  0
VERTEX
  8
0
  5
70C
 10
3435.39
 20
1829.33
 30
0.000000
  70
    32
  0
VERTEX
  8
0
  5
70D
 10
3435.40
 20
1829.34
 30
0.000000
  70
    32
  0
VERTEX
  8
0
  5
70E
 10
3435.41
 20
1829.36
 30
0.000000
  70
    32
  0
VERTEX
  8
0
  5
70F
 10
3435.42
 20
1829.38
 30
0.000000
  70
    32
  0
VERTEX
  8
0
  5
710
 10
3435.43
 20
1829.39
 30
0.000000
  70
    32
  0
VERTEX
  8
0
  5
711
 10
3435.44
 20
1829.41
 30
0.000000
  70
    32
  0
VERTEX
  8
0
  5
712
 10
3435.45
 20
1829.43
 30
0.000000
  70
    32
  0
VERTEX
  8
0
  5
713
 10
3435.46
 20
1829.44
 30
0.000000
  70
    32
  0
VERTEX
  8
0
  5
714
 10
3435.47
 20
1829.46
 30
0.000000
  70
    32
  0
VERTEX
  8
0
  5
715
 10
3435.48
 20
1829.48
 30
0.000000
  70
    32
  0
VERTEX
  8
0
  5
716
 10
3435.49
 20
1829.50
 30
0.000000
  70
    32
  0
VERTEX
  8
0
  5
717
 10
3435.50
 20
1829.51
 30
0.000000
  70
    32
  0
VERTEX
  8
0
  5
718
 10
3435.51
 20
1829.53
 30
0.000000
  70
    32
  0
VERTEX
  8
0
  5
719
 10
3435.52
 20
1829.55
 30
0.000000
  70
    32
  0
VERTEX
  8
0
  5
71A
 10
3435.53
 20
1829.56
 30
0.000000
  70
    32
  0
VERTEX
  8
0
  5
71B
 10
3435.54
 20
1829.58
 30
0.000000
  70
    32
  0
VERTEX
  8
0
  5
71C
 10
3435.55
 20
1829.60
 30
0.000000
  70
    32
  0
VERTEX
  8
0
  5
71D
 10
3435.56
 20
1829.62
 30
0.000000
  70
    32
  0
VERTEX
  8
0
  5
71E
 10
3435.57
 20
1829.63
 30
0.000000
  70
    32
  0
VERTEX
  8
0
  5
71F
 10
3435.58
 20
1829.65
 30
0.000000
  70
    32
  0
VERTEX
  8
0
  5
720
 10
3435.59
 20
1829.67
 30
0.000000
  70
    32
  0
VERTEX
  8
0
  5
721
 10
3435.60
 20
1829.68
 30
0.000000
  70
    32
  0
VERTEX
  8
0
  5
722
 10
3435.61
 20
1829.70
 30
0.000000
  70
    32
  0
VERTEX
  8
0
  5
723
 10
3435.62
 20
1829.72
 30
0.000000
  70
    32
  0
VERTEX
  8
0
  5
724
 10
3435.63
 20
1829.74
 30
0.000000
  70
    32
  0
VERTEX
  8
0
  5
725
 10
3435.64
 20
1829.75
 30
0.000000
  70
    32
  0
VERTEX
  8
0
  5
726
 10
3435.65
 20
1829.77
 30
0.000000
  70
    32
  0
VERTEX
  8
0
  5
727
 10
3435.66
 20
1829.79
 30
0.000000
  70
    32
  0
VERTEX
  8
0
  5
728
 10
3435.67
 20
1829.80
 30
0.000000
  70
    32
  0
VERTEX
  8
0
  5
729
 10
3435.68
 20
1829.82
 30
0.000000
  70
    32
  0
VERTEX
  8
0
  5
72A
 10
3435.69
 20
1829.84
 30
0.000000
  70
    32
  0
VERTEX
  8
0
  5
72B
 10
3435.70
 20
1829.86
 30
0.000000
  70
    32
  0
VERTEX
  8
0
  5
72C
 10
3435.71
 20
1829.87
 30
0.000000
  70
    32
  0
VERTEX
  8
0
  5
72D
 10
3435.71
 20
1829.89
 30
0.000000
  70
    32
  0
VERTEX
  8
0
  5
72E
 10
3435.72
 20
1829.91
 30
0.000000
  70
    32
  0
VERTEX
  8
0
  5
72F
 10
3435.73
 20
1829.92
 30
0.000000
  70
    32
  0
VERTEX
  8
0
  5
730
 10
3435.74
 20
1829.94
 30
0.000000
  70
    32
  0
VERTEX
  8
0
  5
731
 10
3435.75
 20
1829.96
 30
0.000000
  70
    32
  0
VERTEX
  8
0
  5
732
 10
3435.76
 20
1829.98
 30
0.000000
  70
    32
  0
VERTEX
  8
0
  5
733
 10
3435.77
 20
1829.99
 30
0.000000
  70
    32
  0
VERTEX
  8
0
  5
734
 10
3435.78
 20
1830.01
 30
0.000000
  70
    32
  0
VERTEX
  8
0
  5
735
 10
3435.79
 20
1830.03
 30
0.000000
  70
    32
  0
VERTEX
  8
0
  5
736
 10
3435.80
 20
1830.05
 30
0.000000
  70
    32
  0
VERTEX
  8
0
  5
737
 10
3435.81
 20
1830.06
 30
0.000000
  70
    32
  0
VERTEX
  8
0
  5
738
 10
3435.82
 20
1830.08
 30
0.000000
  70
    32
  0
VERTEX
  8
0
  5
739
 10
3435.83
 20
1830.10
 30
0.000000
  70
    32
  0
VERTEX
  8
0
  5
73A
 10
3435.84
 20
1830.11
 30
0.000000
  70
    32
  0
VERTEX
  8
0
  5
73B
 10
3435.85
 20
1830.13
 30
0.000000
  70
    32
  0
VERTEX
  8
0
  5
73C
 10
3435.86
 20
1830.15
 30
0.000000
  70
    32
  0
VERTEX
  8
0
  5
73D
 10
3435.87
 20
1830.17
 30
0.000000
  70
    32
  0
VERTEX
  8
0
  5
73E
 10
3435.88
 20
1830.18
 30
0.000000
  70
    32
  0
VERTEX
  8
0
  5
73F
 10
3435.89
 20
1830.20
 30
0.000000
  70
    32
  0
VERTEX
  8
0
  5
740
 10
3435.90
 20
1830.22
 30
0.000000
  70
    32
  0
VERTEX
  8
0
  5
741
 10
3435.91
 20
1830.24
 30
0.000000
  70
    32
  0
VERTEX
  8
0
  5
742
 10
3435.92
 20
1830.25
 30
0.000000
  70
    32
  0
VERTEX
  8
0
  5
743
 10
3435.93
 20
1830.27
 30
0.000000
  70
    32
  0
VERTEX
  8
0
  5
744
 10
3435.93
 20
1830.29
 30
0.000000
  70
    32
  0
VERTEX
  8
0
  5
745
 10
3435.94
 20
1830.31
 30
0.000000
  70
    32
  0
VERTEX
  8
0
  5
746
 10
3435.95
 20
1830.32
 30
0.000000
  70
    32
  0
VERTEX
  8
0
  5
747
 10
3435.96
 20
1830.34
 30
0.000000
  70
    32
  0
VERTEX
  8
0
  5
748
 10
3435.97
 20
1830.36
 30
0.000000
  70
    32
  0
VERTEX
  8
0
  5
749
 10
3435.98
 20
1830.37
 30
0.000000
  70
    32
  0
VERTEX
  8
0
  5
74A
 10
3435.99
 20
1830.39
 30
0.000000
  70
    32
  0
VERTEX
  8
0
  5
74B
 10
3436.00
 20
1830.41
 30
0.000000
  70
    32
  0
VERTEX
  8
0
  5
74C
 10
3436.01
 20
1830.43
 30
0.000000
  70
    32
  0
VERTEX
  8
0
  5
74D
 10
3436.02
 20
1830.44
 30
0.000000
  70
    32
  0
VERTEX
  8
0
  5
74E
 10
3436.03
 20
1830.46
 30
0.000000
  70
    32
  0
VERTEX
  8
0
  5
74F
 10
3436.04
 20
1830.48
 30
0.000000
  70
    32
  0
VERTEX
  8
0
  5
750
 10
3436.05
 20
1830.50
 30
0.000000
  70
    32
  0
VERTEX
  8
0
  5
751
 10
3436.06
 20
1830.51
 30
0.000000
  70
    32
  0
VERTEX
  8
0
  5
752
 10
3436.07
 20
1830.53
 30
0.000000
  70
    32
  0
VERTEX
  8
0
  5
753
 10
3436.08
 20
1830.55
 30
0.000000
  70
    32
  0
VERTEX
  8
0
  5
754
 10
3436.08
 20
1830.57
 30
0.000000
  70
    32
  0
VERTEX
  8
0
  5
755
 10
3436.09
 20
1830.58
 30
0.000000
  70
    32
  0
VERTEX
  8
0
  5
756
 10
3436.10
 20
1830.60
 30
0.000000
  70
    32
  0
VERTEX
  8
0
  5
757
 10
3436.11
 20
1830.62
 30
0.000000
  70
    32
  0
VERTEX
  8
0
  5
758
 10
3436.12
 20
1830.64
 30
0.000000
  70
    32
  0
VERTEX
  8
0
  5
759
 10
3436.13
 20
1830.65
 30
0.000000
  70
    32
  0
VERTEX
  8
0
  5
75A
 10
3436.14
 20
1830.67
 30
0.000000
  70
    32
  0
VERTEX
  8
0
  5
75B
 10
3436.15
 20
1830.69
 30
0.000000
  70
    32
  0
VERTEX
  8
0
  5
75C
 10
3436.16
 20
1830.71
 30
0.000000
  70
    32
  0
VERTEX
  8
0
  5
75D
 10
3436.17
 20
1830.72
 30
0.000000
  70
    32
  0
VERTEX
  8
0
  5
75E
 10
3436.18
 20
1830.74
 30
0.000000
  70
    32
  0
VERTEX
  8
0
  5
75F
 10
3436.19
 20
1830.76
 30
0.000000
  70
    32
  0
VERTEX
  8
0
  5
760
 10
3436.20
 20
1830.78
 30
0.000000
  70
    32
  0
VERTEX
  8
0
  5
761
 10
3436.20
 20
1830.79
 30
0.000000
  70
    32
  0
VERTEX
  8
0
  5
762
 10
3436.21
 20
1830.81
 30
0.000000
  70
    32
  0
VERTEX
  8
0
  5
763
 10
3436.22
 20
1830.83
 30
0.000000
  70
    32
  0
VERTEX
  8
0
  5
764
 10
3436.23
 20
1830.85
 30
0.000000
  70
    32
  0
VERTEX
  8
0
  5
765
 10
3436.24
 20
1830.86
 30
0.000000
  70
    32
  0
VERTEX
  8
0
  5
766
 10
3436.25
 20
1830.88
 30
0.000000
  70
    32
  0
VERTEX
  8
0
  5
767
 10
3436.26
 20
1830.90
 30
0.000000
  70
    32
  0
VERTEX
  8
0
  5
768
 10
3436.27
 20
1830.92
 30
0.000000
  70
    32
  0
VERTEX
  8
0
  5
769
 10
3436.28
 20
1830.93
 30
0.000000
  70
    32
  0
VERTEX
  8
0
  5
76A
 10
3436.29
 20
1830.95
 30
0.000000
  70
    32
  0
VERTEX
  8
0
  5
76B
 10
3436.30
 20
1830.97
 30
0.000000
  70
    32
  0
VERTEX
  8
0
  5
76C
 10
3436.30
 20
1830.99
 30
0.000000
  70
    32
  0
VERTEX
  8
0
  5
76D
 10
3436.31
 20
1831.00
 30
0.000000
  70
    32
  0
VERTEX
  8
0
  5
76E
 10
3436.32
 20
1831.02
 30
0.000000
  70
    32
  0
VERTEX
  8
0
  5
76F
 10
3436.33
 20
1831.04
 30
0.000000
  70
    32
  0
VERTEX
  8
0
  5
770
 10
3436.34
 20
1831.06
 30
0.000000
  70
    32
  0
VERTEX
  8
0
  5
771
 10
3436.35
 20
1831.07
 30
0.000000
  70
    32
  0
VERTEX
  8
0
  5
772
 10
3436.36
 20
1831.09
 30
0.000000
  70
    32
  0
VERTEX
  8
0
  5
773
 10
3436.37
 20
1831.11
 30
0.000000
  70
    32
  0
VERTEX
  8
0
  5
774
 10
3436.38
 20
1831.13
 30
0.000000
  70
    32
  0
VERTEX
  8
0
  5
775
 10
3436.39
 20
1831.14
 30
0.000000
  70
    32
  0
VERTEX
  8
0
  5
776
 10
3436.39
 20
1831.16
 30
0.000000
  70
    32
  0
VERTEX
  8
0
  5
777
 10
3436.40
 20
1831.18
 30
0.000000
  70
    32
  0
VERTEX
  8
0
  5
778
 10
3436.41
 20
1831.20
 30
0.000000
  70
    32
  0
VERTEX
  8
0
  5
779
 10
3436.42
 20
1831.21
 30
0.000000
  70
    32
  0
VERTEX
  8
0
  5
77A
 10
3436.43
 20
1831.23
 30
0.000000
  70
    32
  0
VERTEX
  8
0
  5
77B
 10
3436.44
 20
1831.25
 30
0.000000
  70
    32
  0
VERTEX
  8
0
  5
77C
 10
3436.45
 20
1831.27
 30
0.000000
  70
    32
  0
VERTEX
  8
0
  5
77D
 10
3436.46
 20
1831.28
 30
0.000000
  70
    32
  0
VERTEX
  8
0
  5
77E
 10
3436.46
 20
1831.30
 30
0.000000
  70
    32
  0
VERTEX
  8
0
  5
77F
 10
3436.47
 20
1831.32
 30
0.000000
  70
    32
  0
VERTEX
  8
0
  5
780
 10
3436.48
 20
1831.34
 30
0.000000
  70
    32
  0
VERTEX
  8
0
  5
781
 10
3436.49
 20
1831.36
 30
0.000000
  70
    32
  0
VERTEX
  8
0
  5
782
 10
3436.50
 20
1831.37
 30
0.000000
  70
    32
  0
VERTEX
  8
0
  5
783
 10
3436.51
 20
1831.39
 30
0.000000
  70
    32
  0
VERTEX
  8
0
  5
784
 10
3436.52
 20
1831.41
 30
0.000000
  70
    32
  0
VERTEX
  8
0
  5
785
 10
3436.53
 20
1831.43
 30
0.000000
  70
    32
  0
VERTEX
  8
0
  5
786
 10
3436.54
 20
1831.44
 30
0.000000
  70
    32
  0
VERTEX
  8
0
  5
787
 10
3436.54
 20
1831.46
 30
0.000000
  70
    32
  0
VERTEX
  8
0
  5
788
 10
3436.55
 20
1831.48
 30
0.000000
  70
    32
  0
VERTEX
  8
0
  5
789
 10
3436.56
 20
1831.50
 30
0.000000
  70
    32
  0
VERTEX
  8
0
  5
78A
 10
3436.57
 20
1831.51
 30
0.000000
  70
    32
  0
VERTEX
  8
0
  5
78B
 10
3436.58
 20
1831.53
 30
0.000000
  70
    32
  0
VERTEX
  8
0
  5
78C
 10
3436.59
 20
1831.55
 30
0.000000
  70
    32
  0
VERTEX
  8
0
  5
78D
 10
3436.60
 20
1831.57
 30
0.000000
  70
    32
  0
VERTEX
  8
0
  5
78E
 10
3436.60
 20
1831.58
 30
0.000000
  70
    32
  0
VERTEX
  8
0
  5
78F
 10
3436.61
 20
1831.60
 30
0.000000
  70
    32
  0
VERTEX
  8
0
  5
790
 10
3436.62
 20
1831.62
 30
0.000000
  70
    32
  0
VERTEX
  8
0
  5
791
 10
3436.63
 20
1831.64
 30
0.000000
  70
    32
  0
VERTEX
  8
0
  5
792
 10
3436.64
 20
1831.66
 30
0.000000
  70
    32
  0
VERTEX
  8
0
  5
793
 10
3436.65
 20
1831.67
 30
0.000000
  70
    32
  0
VERTEX
  8
0
  5
794
 10
3436.66
 20
1831.69
 30
0.000000
  70
    32
  0
VERTEX
  8
0
  5
795
 10
3436.67
 20
1831.71
 30
0.000000
  70
    32
  0
VERTEX
  8
0
  5
796
 10
3436.67
 20
1831.73
 30
0.000000
  70
    32
  0
VERTEX
  8
0
  5
797
 10
3436.68
 20
1831.74
 30
0.000000
  70
    32
  0
VERTEX
  8
0
  5
798
 10
3436.69
 20
1831.76
 30
0.000000
  70
    32
  0
VERTEX
  8
0
  5
799
 10
3436.70
 20
1831.78
 30
0.000000
  70
    32
  0
VERTEX
  8
0
  5
79A
 10
3436.71
 20
1831.80
 30
0.000000
  70
    32
  0
VERTEX
  8
0
  5
79B
 10
3436.72
 20
1831.82
 30
0.000000
  70
    32
  0
VERTEX
  8
0
  5
79C
 10
3436.73
 20
1831.83
 30
0.000000
  70
    32
  0
VERTEX
  8
0
  5
79D
 10
3436.73
 20
1831.85
 30
0.000000
  70
    32
  0
VERTEX
  8
0
  5
79E
 10
3436.74
 20
1831.87
 30
0.000000
  70
    32
  0
VERTEX
  8
0
  5
79F
 10
3436.75
 20
1831.89
 30
0.000000
  70
    32
  0
VERTEX
  8
0
  5
7A0
 10
3436.76
 20
1831.90
 30
0.000000
  70
    32
  0
VERTEX
  8
0
  5
7A1
 10
3436.77
 20
1831.92
 30
0.000000
  70
    32
  0
VERTEX
  8
0
  5
7A2
 10
3436.78
 20
1831.94
 30
0.000000
  70
    32
  0
VERTEX
  8
0
  5
7A3
 10
3436.78
 20
1831.96
 30
0.000000
  70
    32
  0
VERTEX
  8
0
  5
7A4
 10
3436.79
 20
1831.98
 30
0.000000
  70
    32
  0
VERTEX
  8
0
  5
7A5
 10
3436.80
 20
1831.99
 30
0.000000
  70
    32
  0
VERTEX
  8
0
  5
7A6
 10
3436.81
 20
1832.01
 30
0.000000
  70
    32
  0
VERTEX
  8
0
  5
7A7
 10
3436.82
 20
1832.03
 30
0.000000
  70
    32
  0
VERTEX
  8
0
  5
7A8
 10
3436.83
 20
1832.05
 30
0.000000
  70
    32
  0
VERTEX
  8
0
  5
7A9
 10
3436.84
 20
1832.06
 30
0.000000
  70
    32
  0
VERTEX
  8
0
  5
7AA
 10
3436.84
 20
1832.08
 30
0.000000
  70
    32
  0
VERTEX
  8
0
  5
7AB
 10
3436.85
 20
1832.10
 30
0.000000
  70
    32
  0
VERTEX
  8
0
  5
7AC
 10
3436.86
 20
1832.12
 30
0.000000
  70
    32
  0
VERTEX
  8
0
  5
7AD
 10
3436.87
 20
1832.14
 30
0.000000
  70
    32
  0
VERTEX
  8
0
  5
7AE
 10
3436.88
 20
1832.15
 30
0.000000
  70
    32
  0
VERTEX
  8
0
  5
7AF
 10
3436.89
 20
1832.17
 30
0.000000
  70
    32
  0
VERTEX
  8
0
  5
7B0
 10
3436.89
 20
1832.19
 30
0.000000
  70
    32
  0
VERTEX
  8
0
  5
7B1
 10
3436.90
 20
1832.21
 30
0.000000
  70
    32
  0
VERTEX
  8
0
  5
7B2
 10
3436.91
 20
1832.22
 30
0.000000
  70
    32
  0
VERTEX
  8
0
  5
7B3
 10
3436.92
 20
1832.24
 30
0.000000
  70
    32
  0
VERTEX
  8
0
  5
7B4
 10
3436.93
 20
1832.26
 30
0.000000
  70
    32
  0
VERTEX
  8
0
  5
7B5
 10
3436.94
 20
1832.28
 30
0.000000
  70
    32
  0
VERTEX
  8
0
  5
7B6
 10
3436.94
 20
1832.30
 30
0.000000
  70
    32
  0
VERTEX
  8
0
  5
7B7
 10
3436.95
 20
1832.31
 30
0.000000
  70
    32
  0
VERTEX
  8
0
  5
7B8
 10
3436.96
 20
1832.33
 30
0.000000
  70
    32
  0
VERTEX
  8
0
  5
7B9
 10
3436.97
 20
1832.35
 30
0.000000
  70
    32
  0
VERTEX
  8
0
  5
7BA
 10
3436.98
 20
1832.37
 30
0.000000
  70
    32
  0
VERTEX
  8
0
  5
7BB
 10
3436.98
 20
1832.39
 30
0.000000
  70
    32
  0
VERTEX
  8
0
  5
7BC
 10
3436.99
 20
1832.40
 30
0.000000
  70
    32
  0
VERTEX
  8
0
  5
7BD
 10
3437.00
 20
1832.42
 30
0.000000
  70
    32
  0
VERTEX
  8
0
  5
7BE
 10
3437.01
 20
1832.44
 30
0.000000
  70
    32
  0
VERTEX
  8
0
  5
7BF
 10
3437.02
 20
1832.46
 30
0.000000
  70
    32
  0
VERTEX
  8
0
  5
7C0
 10
3437.03
 20
1832.47
 30
0.000000
  70
    32
  0
VERTEX
  8
0
  5
7C1
 10
3437.03
 20
1832.49
 30
0.000000
  70
    32
  0
VERTEX
  8
0
  5
7C2
 10
3437.04
 20
1832.51
 30
0.000000
  70
    32
  0
VERTEX
  8
0
  5
7C3
 10
3437.05
 20
1832.53
 30
0.000000
  70
    32
  0
VERTEX
  8
0
  5
7C4
 10
3437.06
 20
1832.55
 30
0.000000
  70
    32
  0
VERTEX
  8
0
  5
7C5
 10
3437.07
 20
1832.56
 30
0.000000
  70
    32
  0
VERTEX
  8
0
  5
7C6
 10
3437.07
 20
1832.58
 30
0.000000
  70
    32
  0
VERTEX
  8
0
  5
7C7
 10
3437.08
 20
1832.60
 30
0.000000
  70
    32
  0
VERTEX
  8
0
  5
7C8
 10
3437.09
 20
1832.62
 30
0.000000
  70
    32
  0
VERTEX
  8
0
  5
7C9
 10
3437.10
 20
1832.64
 30
0.000000
  70
    32
  0
VERTEX
  8
0
  5
7CA
 10
3437.11
 20
1832.65
 30
0.000000
  70
    32
  0
VERTEX
  8
0
  5
7CB
 10
3437.11
 20
1832.67
 30
0.000000
  70
    32
  0
VERTEX
  8
0
  5
7CC
 10
3437.12
 20
1832.69
 30
0.000000
  70
    32
  0
VERTEX
  8
0
  5
7CD
 10
3437.13
 20
1832.71
 30
0.000000
  70
    32
  0
VERTEX
  8
0
  5
7CE
 10
3437.14
 20
1832.73
 30
0.000000
  70
    32
  0
VERTEX
  8
0
  5
7CF
 10
3437.15
 20
1832.74
 30
0.000000
  70
    32
  0
VERTEX
  8
0
  5
7D0
 10
3437.16
 20
1832.76
 30
0.000000
  70
    32
  0
VERTEX
  8
0
  5
7D1
 10
3437.16
 20
1832.78
 30
0.000000
  70
    32
  0
VERTEX
  8
0
  5
7D2
 10
3437.17
 20
1832.80
 30
0.000000
  70
    32
  0
VERTEX
  8
0
  5
7D3
 10
3437.18
 20
1832.82
 30
0.000000
  70
    32
  0
VERTEX
  8
0
  5
7D4
 10
3437.19
 20
1832.83
 30
0.000000
  70
    32
  0
VERTEX
  8
0
  5
7D5
 10
3437.20
 20
1832.85
 30
0.000000
  70
    32
  0
VERTEX
  8
0
  5
7D6
 10
3437.20
 20
1832.87
 30
0.000000
  70
    32
  0
VERTEX
  8
0
  5
7D7
 10
3437.21
 20
1832.89
 30
0.000000
  70
    32
  0
VERTEX
  8
0
  5
7D8
 10
3437.22
 20
1832.91
 30
0.000000
  70
    32
  0
VERTEX
  8
0
  5
7D9
 10
3437.23
 20
1832.92
 30
0.000000
  70
    32
  0
VERTEX
  8
0
  5
7DA
 10
3437.23
 20
1832.94
 30
0.000000
  70
    32
  0
VERTEX
  8
0
  5
7DB
 10
3437.24
 20
1832.96
 30
0.000000
  70
    32
  0
VERTEX
  8
0
  5
7DC
 10
3437.25
 20
1832.98
 30
0.000000
  70
    32
  0
VERTEX
  8
0
  5
7DD
 10
3437.26
 20
1833.00
 30
0.000000
  70
    32
  0
VERTEX
  8
0
  5
7DE
 10
3437.27
 20
1833.01
 30
0.000000
  70
    32
  0
VERTEX
  8
0
  5
7DF
 10
3437.27
 20
1833.03
 30
0.000000
  70
    32
  0
VERTEX
  8
0
  5
7E0
 10
3437.28
 20
1833.05
 30
0.000000
  70
    32
  0
VERTEX
  8
0
  5
7E1
 10
3437.29
 20
1833.07
 30
0.000000
  70
    32
  0
VERTEX
  8
0
  5
7E2
 10
3437.30
 20
1833.09
 30
0.000000
  70
    32
  0
VERTEX
  8
0
  5
7E3
 10
3437.31
 20
1833.10
 30
0.000000
  70
    32
  0
VERTEX
  8
0
  5
7E4
 10
3437.31
 20
1833.12
 30
0.000000
  70
    32
  0
VERTEX
  8
0
  5
7E5
 10
3437.32
 20
1833.14
 30
0.000000
  70
    32
  0
VERTEX
  8
0
  5
7E6
 10
3437.33
 20
1833.16
 30
0.000000
  70
    32
  0
VERTEX
  8
0
  5
7E7
 10
3437.34
 20
1833.18
 30
0.000000
  70
    32
  0
VERTEX
  8
0
  5
7E8
 10
3437.34
 20
1833.19
 30
0.000000
  70
    32
  0
VERTEX
  8
0
  5
7E9
 10
3437.35
 20
1833.21
 30
0.000000
  70
    32
  0
VERTEX
  8
0
  5
7EA
 10
3437.36
 20
1833.23
 30
0.000000
  70
    32
  0
VERTEX
  8
0
  5
7EB
 10
3437.37
 20
1833.25
 30
0.000000
  70
    32
  0
VERTEX
  8
0
  5
7EC
 10
3437.38
 20
1833.27
 30
0.000000
  70
    32
  0
VERTEX
  8
0
  5
7ED
 10
3437.38
 20
1833.28
 30
0.000000
  70
    32
  0
VERTEX
  8
0
  5
7EE
 10
3437.39
 20
1833.30
 30
0.000000
  70
    32
  0
VERTEX
  8
0
  5
7EF
 10
3437.40
 20
1833.32
 30
0.000000
  70
    32
  0
VERTEX
  8
0
  5
7F0
 10
3437.41
 20
1833.34
 30
0.000000
  70
    32
  0
VERTEX
  8
0
  5
7F1
 10
3437.41
 20
1833.36
 30
0.000000
  70
    32
  0
VERTEX
  8
0
  5
7F2
 10
3437.42
 20
1833.38
 30
0.000000
  70
    32
  0
VERTEX
  8
0
  5
7F3
 10
3437.43
 20
1833.39
 30
0.000000
  70
    32
  0
VERTEX
  8
0
  5
7F4
 10
3437.44
 20
1833.41
 30
0.000000
  70
    32
  0
VERTEX
  8
0
  5
7F5
 10
3437.45
 20
1833.43
 30
0.000000
  70
    32
  0
VERTEX
  8
0
  5
7F6
 10
3437.45
 20
1833.45
 30
0.000000
  70
    32
  0
VERTEX
  8
0
  5
7F7
 10
3437.46
 20
1833.47
 30
0.000000
  70
    32
  0
VERTEX
  8
0
  5
7F8
 10
3437.47
 20
1833.48
 30
0.000000
  70
    32
  0
VERTEX
  8
0
  5
7F9
 10
3437.48
 20
1833.50
 30
0.000000
  70
    32
  0
VERTEX
  8
0
  5
7FA
 10
3437.48
 20
1833.52
 30
0.000000
  70
    32
  0
VERTEX
  8
0
  5
7FB
 10
3437.49
 20
1833.54
 30
0.000000
  70
    32
  0
VERTEX
  8
0
  5
7FC
 10
3437.50
 20
1833.56
 30
0.000000
  70
    32
  0
VERTEX
  8
0
  5
7FD
 10
3437.51
 20
1833.57
 30
0.000000
  70
    32
  0
VERTEX
  8
0
  5
7FE
 10
3437.51
 20
1833.59
 30
0.000000
  70
    32
  0
VERTEX
  8
0
  5
7FF
 10
3437.52
 20
1833.61
 30
0.000000
  70
    32
  0
VERTEX
  8
0
  5
800
 10
3437.53
 20
1833.63
 30
0.000000
  70
    32
  0
VERTEX
  8
0
  5
801
 10
3437.54
 20
1833.65
 30
0.000000
  70
    32
  0
VERTEX
  8
0
  5
802
 10
3437.54
 20
1833.67
 30
0.000000
  70
    32
  0
VERTEX
  8
0
  5
803
 10
3437.55
 20
1833.68
 30
0.000000
  70
    32
  0
VERTEX
  8
0
  5
804
 10
3437.56
 20
1833.70
 30
0.000000
  70
    32
  0
VERTEX
  8
0
  5
805
 10
3437.57
 20
1833.72
 30
0.000000
  70
    32
  0
VERTEX
  8
0
  5
806
 10
3437.57
 20
1833.74
 30
0.000000
  70
    32
  0
VERTEX
  8
0
  5
807
 10
3437.58
 20
1833.76
 30
0.000000
  70
    32
  0
VERTEX
  8
0
  5
808
 10
3437.59
 20
1833.77
 30
0.000000
  70
    32
  0
VERTEX
  8
0
  5
809
 10
3437.60
 20
1833.79
 30
0.000000
  70
    32
  0
VERTEX
  8
0
  5
80A
 10
3437.60
 20
1833.81
 30
0.000000
  70
    32
  0
VERTEX
  8
0
  5
80B
 10
3437.61
 20
1833.83
 30
0.000000
  70
    32
  0
VERTEX
  8
0
  5
80C
 10
3437.62
 20
1833.85
 30
0.000000
  70
    32
  0
VERTEX
  8
0
  5
80D
 10
3437.63
 20
1833.87
 30
0.000000
  70
    32
  0
VERTEX
  8
0
  5
80E
 10
3437.63
 20
1833.88
 30
0.000000
  70
    32
  0
VERTEX
  8
0
  5
80F
 10
3437.64
 20
1833.90
 30
0.000000
  70
    32
  0
VERTEX
  8
0
  5
810
 10
3437.65
 20
1833.92
 30
0.000000
  70
    32
  0
VERTEX
  8
0
  5
811
 10
3437.66
 20
1833.94
 30
0.000000
  70
    32
  0
VERTEX
  8
0
  5
812
 10
3437.66
 20
1833.96
 30
0.000000
  70
    32
  0
VERTEX
  8
0
  5
813
 10
3437.67
 20
1833.97
 30
0.000000
  70
    32
  0
VERTEX
  8
0
  5
814
 10
3437.68
 20
1833.99
 30
0.000000
  70
    32
  0
VERTEX
  8
0
  5
815
 10
3437.69
 20
1834.01
 30
0.000000
  70
    32
  0
VERTEX
  8
0
  5
816
 10
3437.69
 20
1834.03
 30
0.000000
  70
    32
  0
VERTEX
  8
0
  5
817
 10
3437.70
 20
1834.05
 30
0.000000
  70
    32
  0
VERTEX
  8
0
  5
818
 10
3437.71
 20
1834.07
 30
0.000000
  70
    32
  0
VERTEX
  8
0
  5
819
 10
3437.71
 20
1834.08
 30
0.000000
  70
    32
  0
VERTEX
  8
0
  5
81A
 10
3437.72
 20
1834.10
 30
0.000000
  70
    32
  0
VERTEX
  8
0
  5
81B
 10
3437.73
 20
1834.12
 30
0.000000
  70
    32
  0
VERTEX
  8
0
  5
81C
 10
3437.74
 20
1834.14
 30
0.000000
  70
    32
  0
VERTEX
  8
0
  5
81D
 10
3437.74
 20
1834.16
 30
0.000000
  70
    32
  0
VERTEX
  8
0
  5
81E
 10
3437.75
 20
1834.18
 30
0.000000
  70
    32
  0
VERTEX
  8
0
  5
81F
 10
3437.76
 20
1834.19
 30
0.000000
  70
    32
  0
VERTEX
  8
0
  5
820
 10
3437.77
 20
1834.21
 30
0.000000
  70
    32
  0
VERTEX
  8
0
  5
821
 10
3437.77
 20
1834.23
 30
0.000000
  70
    32
  0
VERTEX
  8
0
  5
822
 10
3437.78
 20
1834.25
 30
0.000000
  70
    32
  0
VERTEX
  8
0
  5
823
 10
3437.79
 20
1834.27
 30
0.000000
  70
    32
  0
VERTEX
  8
0
  5
824
 10
3437.79
 20
1834.28
 30
0.000000
  70
    32
  0
VERTEX
  8
0
  5
825
 10
3437.80
 20
1834.30
 30
0.000000
  70
    32
  0
VERTEX
  8
0
  5
826
 10
3437.81
 20
1834.32
 30
0.000000
  70
    32
  0
VERTEX
  8
0
  5
827
 10
3437.82
 20
1834.34
 30
0.000000
  70
    32
  0
VERTEX
  8
0
  5
828
 10
3437.82
 20
1834.36
 30
0.000000
  70
    32
  0
VERTEX
  8
0
  5
829
 10
3437.83
 20
1834.38
 30
0.000000
  70
    32
  0
VERTEX
  8
0
  5
82A
 10
3437.84
 20
1834.39
 30
0.000000
  70
    32
  0
VERTEX
  8
0
  5
82B
 10
3437.84
 20
1834.41
 30
0.000000
  70
    32
  0
VERTEX
  8
0
  5
82C
 10
3437.85
 20
1834.43
 30
0.000000
  70
    32
  0
SEQEND
  8
0
  5
82D
  0
POLYLINE
  8
0
  5
82E
  66
     1
 10
0.000000
 20
0.000000
 30
0.000000
  70
     8
  0
VERTEX
  8
0
  5
82F
 10
3415.07
 20
1848.17
 30
0.000000
  70
    32
  0
VERTEX
  8
0
  5
830
 10
3415.07
 20
1848.14
 30
0.000000
  70
    32
  0
VERTEX
  8
0
  5
831
 10
3415.07
 20
1848.11
 30
0.000000
  70
    32
  0
VERTEX
  8
0
  5
832
 10
3415.07
 20
1848.08
 30
0.000000
  70
    32
  0
VERTEX
  8
0
  5
833
 10
3415.08
 20
1848.04
 30
0.000000
  70
    32
  0
VERTEX
  8
0
  5
834
 10
3415.08
 20
1848.01
 30
0.000000
  70
    32
  0
VERTEX
  8
0
  5
835
 10
3415.08
 20
1847.98
 30
0.000000
  70
    32
  0
VERTEX
  8
0
  5
836
 10
3415.08
 20
1847.95
 30
0.000000
  70
    32
  0
VERTEX
  8
0
  5
837
 10
3415.08
 20
1847.92
 30
0.000000
  70
    32
  0
VERTEX
  8
0
  5
838
 10
3415.08
 20
1847.89
 30
0.000000
  70
    32
  0
VERTEX
  8
0
  5
839
 10
3415.08
 20
1847.86
 30
0.000000
  70
    32
  0
VERTEX
  8
0
  5
83A
 10
3415.08
 20
1847.83
 30
0.000000
  70
    32
  0
VERTEX
  8
0
  5
83B
 10
3415.08
 20
1847.80
 30
0.000000
  70
    32
  0
VERTEX
  8
0
  5
83C
 10
3415.08
 20
1847.76
 30
0.000000
  70
    32
  0
VERTEX
  8
0
  5
83D
 10
3415.08
 20
1847.73
 30
0.000000
  70
    32
  0
VERTEX
  8
0
  5
83E
 10
3415.08
 20
1847.70
 30
0.000000
  70
    32
  0
VERTEX
  8
0
  5
83F
 10
3415.08
 20
1847.67
 30
0.000000
  70
    32
  0
VERTEX
  8
0
  5
840
 10
3415.08
 20
1847.64
 30
0.000000
  70
    32
  0
VERTEX
  8
0
  5
841
 10
3415.08
 20
1847.61
 30
0.000000
  70
    32
  0
VERTEX
  8
0
  5
842
 10
3415.08
 20
1847.58
 30
0.000000
  70
    32
  0
VERTEX
  8
0
  5
843
 10
3415.08
 20
1847.55
 30
0.000000
  70
    32
  0
VERTEX
  8
0
  5
844
 10
3415.09
 20
1847.52
 30
0.000000
  70
    32
  0
VERTEX
  8
0
  5
845
 10
3415.09
 20
1847.48
 30
0.000000
  70
    32
  0
VERTEX
  8
0
  5
846
 10
3415.09
 20
1847.45
 30
0.000000
  70
    32
  0
VERTEX
  8
0
  5
847
 10
3415.09
 20
1847.42
 30
0.000000
  70
    32
  0
VERTEX
  8
0
  5
848
 10
3415.09
 20
1847.39
 30
0.000000
  70
    32
  0
VERTEX
  8
0
  5
849
 10
3415.09
 20
1847.36
 30
0.000000
  70
    32
  0
VERTEX
  8
0
  5
84A
 10
3415.09
 20
1847.33
 30
0.000000
  70
    32
  0
VERTEX
  8
0
  5
84B
 10
3415.09
 20
1847.30
 30
0.000000
  70
    32
  0
VERTEX
  8
0
  5
84C
 10
3415.09
 20
1847.27
 30
0.000000
  70
    32
  0
VERTEX
  8
0
  5
84D
 10
3415.09
 20
1847.23
 30
0.000000
  70
    32
  0
VERTEX
  8
0
  5
84E
 10
3415.09
 20
1847.20
 30
0.000000
  70
    32
  0
VERTEX
  8
0
  5
84F
 10
3415.09
 20
1847.17
 30
0.000000
  70
    32
  0
VERTEX
  8
0
  5
850
 10
3415.09
 20
1847.14
 30
0.000000
  70
    32
  0
VERTEX
  8
0
  5
851
 10
3415.09
 20
1847.11
 30
0.000000
  70
    32
  0
VERTEX
  8
0
  5
852
 10
3415.09
 20
1847.08
 30
0.000000
  70
    32
  0
VERTEX
  8
0
  5
853
 10
3415.09
 20
1847.05
 30
0.000000
  70
    32
  0
VERTEX
  8
0
  5
854
 10
3415.10
 20
1847.02
 30
0.000000
  70
    32
  0
VERTEX
  8
0
  5
855
 10
3415.10
 20
1846.99
 30
0.000000
  70
    32
  0
VERTEX
  8
0
  5
856
 10
3415.10
 20
1846.95
 30
0.000000
  70
    32
  0
VERTEX
  8
0
  5
857
 10
3415.10
 20
1846.92
 30
0.000000
  70
    32
  0
VERTEX
  8
0
  5
858
 10
3415.10
 20
1846.89
 30
0.000000
  70
    32
  0
VERTEX
  8
0
  5
859
 10
3415.10
 20
1846.86
 30
0.000000
  70
    32
  0
VERTEX
  8
0
  5
85A
 10
3415.10
 20
1846.83
 30
0.000000
  70
    32
  0
VERTEX
  8
0
  5
85B
 10
3415.10
 20
1846.80
 30
0.000000
  70
    32
  0
VERTEX
  8
0
  5
85C
 10
3415.10
 20
1846.77
 30
0.000000
  70
    32
  0
VERTEX
  8
0
  5
85D
 10
3415.10
 20
1846.74
 30
0.000000
  70
    32
  0
VERTEX
  8
0
  5
85E
 10
3415.10
 20
1846.71
 30
0.000000
  70
    32
  0
VERTEX
  8
0
  5
85F
 10
3415.10
 20
1846.67
 30
0.000000
  70
    32
  0
VERTEX
  8
0
  5
860
 10
3415.10
 20
1846.64
 30
0.000000
  70
    32
  0
VERTEX
  8
0
  5
861
 10
3415.10
 20
1846.61
 30
0.000000
  70
    32
  0
VERTEX
  8
0
  5
862
 10
3415.10
 20
1846.58
 30
0.000000
  70
    32
  0
VERTEX
  8
0
  5
863
 10
3415.11
 20
1846.55
 30
0.000000
  70
    32
  0
VERTEX
  8
0
  5
864
 10
3415.11
 20
1846.52
 30
0.000000
  70
    32
  0
VERTEX
  8
0
  5
865
 10
3415.11
 20
1846.49
 30
0.000000
  70
    32
  0
VERTEX
  8
0
  5
866
 10
3415.11
 20
1846.46
 30
0.000000
  70
    32
  0
VERTEX
  8
0
  5
867
 10
3415.11
 20
1846.43
 30
0.000000
  70
    32
  0
VERTEX
  8
0
  5
868
 10
3415.11
 20
1846.39
 30
0.000000
  70
    32
  0
VERTEX
  8
0
  5
869
 10
3415.11
 20
1846.36
 30
0.000000
  70
    32
  0
VERTEX
  8
0
  5
86A
 10
3415.11
 20
1846.33
 30
0.000000
  70
    32
  0
VERTEX
  8
0
  5
86B
 10
3415.11
 20
1846.30
 30
0.000000
  70
    32
  0
VERTEX
  8
0
  5
86C
 10
3415.11
 20
1846.27
 30
0.000000
  70
    32
  0
VERTEX
  8
0
  5
86D
 10
3415.11
 20
1846.24
 30
0.000000
  70
    32
  0
VERTEX
  8
0
  5
86E
 10
3415.11
 20
1846.21
 30
0.000000
  70
    32
  0
VERTEX
  8
0
  5
86F
 10
3415.11
 20
1846.18
 30
0.000000
  70
    32
  0
VERTEX
  8
0
  5
870
 10
3415.11
 20
1846.15
 30
0.000000
  70
    32
  0
VERTEX
  8
0
  5
871
 10
3415.12
 20
1846.11
 30
0.000000
  70
    32
  0
VERTEX
  8
0
  5
872
 10
3415.12
 20
1846.08
 30
0.000000
  70
    32
  0
VERTEX
  8
0
  5
873
 10
3415.12
 20
1846.05
 30
0.000000
  70
    32
  0
VERTEX
  8
0
  5
874
 10
3415.12
 20
1846.02
 30
0.000000
  70
    32
  0
VERTEX
  8
0
  5
875
 10
3415.12
 20
1845.99
 30
0.000000
  70
    32
  0
VERTEX
  8
0
  5
876
 10
3415.12
 20
1845.96
 30
0.000000
  70
    32
  0
VERTEX
  8
0
  5
877
 10
3415.12
 20
1845.93
 30
0.000000
  70
    32
  0
VERTEX
  8
0
  5
878
 10
3415.12
 20
1845.90
 30
0.000000
  70
    32
  0
VERTEX
  8
0
  5
879
 10
3415.12
 20
1845.86
 30
0.000000
  70
    32
  0
VERTEX
  8
0
  5
87A
 10
3415.12
 20
1845.83
 30
0.000000
  70
    32
  0
VERTEX
  8
0
  5
87B
 10
3415.12
 20
1845.80
 30
0.000000
  70
    32
  0
VERTEX
  8
0
  5
87C
 10
3415.12
 20
1845.77
 30
0.000000
  70
    32
  0
VERTEX
  8
0
  5
87D
 10
3415.12
 20
1845.74
 30
0.000000
  70
    32
  0
VERTEX
  8
0
  5
87E
 10
3415.13
 20
1845.71
 30
0.000000
  70
    32
  0
VERTEX
  8
0
  5
87F
 10
3415.13
 20
1845.68
 30
0.000000
  70
    32
  0
VERTEX
  8
0
  5
880
 10
3415.13
 20
1845.65
 30
0.000000
  70
    32
  0
VERTEX
  8
0
  5
881
 10
3415.13
 20
1845.62
 30
0.000000
  70
    32
  0
VERTEX
  8
0
  5
882
 10
3415.13
 20
1845.58
 30
0.000000
  70
    32
  0
VERTEX
  8
0
  5
883
 10
3415.13
 20
1845.55
 30
0.000000
  70
    32
  0
VERTEX
  8
0
  5
884
 10
3415.13
 20
1845.52
 30
0.000000
  70
    32
  0
VERTEX
  8
0
  5
885
 10
3415.13
 20
1845.49
 30
0.000000
  70
    32
  0
VERTEX
  8
0
  5
886
 10
3415.13
 20
1845.46
 30
0.000000
  70
    32
  0
VERTEX
  8
0
  5
887
 10
3415.13
 20
1845.43
 30
0.000000
  70
    32
  0
VERTEX
  8
0
  5
888
 10
3415.13
 20
1845.40
 30
0.000000
  70
    32
  0
VERTEX
  8
0
  5
889
 10
3415.13
 20
1845.37
 30
0.000000
  70
    32
  0
VERTEX
  8
0
  5
88A
 10
3415.14
 20
1845.34
 30
0.000000
  70
    32
  0
VERTEX
  8
0
  5
88B
 10
3415.14
 20
1845.30
 30
0.000000
  70
    32
  0
VERTEX
  8
0
  5
88C
 10
3415.14
 20
1845.27
 30
0.000000
  70
    32
  0
VERTEX
  8
0
  5
88D
 10
3415.14
 20
1845.24
 30
0.000000
  70
    32
  0
VERTEX
  8
0
  5
88E
 10
3415.14
 20
1845.21
 30
0.000000
  70
    32
  0
VERTEX
  8
0
  5
88F
 10
3415.14
 20
1845.18
 30
0.000000
  70
    32
  0
VERTEX
  8
0
  5
890
 10
3415.14
 20
1845.15
 30
0.000000
  70
    32
  0
VERTEX
  8
0
  5
891
 10
3415.14
 20
1845.12
 30
0.000000
  70
    32
  0
VERTEX
  8
0
  5
892
 10
3415.14
 20
1845.09
 30
0.000000
  70
    32
  0
VERTEX
  8
0
  5
893
 10
3415.14
 20
1845.06
 30
0.000000
  70
    32
  0
VERTEX
  8
0
  5
894
 10
3415.14
 20
1845.02
 30
0.000000
  70
    32
  0
VERTEX
  8
0
  5
895
 10
3415.14
 20
1844.99
 30
0.000000
  70
    32
  0
VERTEX
  8
0
  5
896
 10
3415.15
 20
1844.96
 30
0.000000
  70
    32
  0
VERTEX
  8
0
  5
897
 10
3415.15
 20
1844.93
 30
0.000000
  70
    32
  0
VERTEX
  8
0
  5
898
 10
3415.15
 20
1844.90
 30
0.000000
  70
    32
  0
VERTEX
  8
0
  5
899
 10
3415.15
 20
1844.87
 30
0.000000
  70
    32
  0
VERTEX
  8
0
  5
89A
 10
3415.15
 20
1844.84
 30
0.000000
  70
    32
  0
VERTEX
  8
0
  5
89B
 10
3415.15
 20
1844.81
 30
0.000000
  70
    32
  0
VERTEX
  8
0
  5
89C
 10
3415.15
 20
1844.78
 30
0.000000
  70
    32
  0
VERTEX
  8
0
  5
89D
 10
3415.15
 20
1844.74
 30
0.000000
  70
    32
  0
VERTEX
  8
0
  5
89E
 10
3415.15
 20
1844.71
 30
0.000000
  70
    32
  0
VERTEX
  8
0
  5
89F
 10
3415.15
 20
1844.68
 30
0.000000
  70
    32
  0
VERTEX
  8
0
  5
8A0
 10
3415.15
 20
1844.65
 30
0.000000
  70
    32
  0
VERTEX
  8
0
  5
8A1
 10
3415.15
 20
1844.62
 30
0.000000
  70
    32
  0
VERTEX
  8
0
  5
8A2
 10
3415.16
 20
1844.59
 30
0.000000
  70
    32
  0
VERTEX
  8
0
  5
8A3
 10
3415.16
 20
1844.56
 30
0.000000
  70
    32
  0
VERTEX
  8
0
  5
8A4
 10
3415.16
 20
1844.53
 30
0.000000
  70
    32
  0
VERTEX
  8
0
  5
8A5
 10
3415.16
 20
1844.50
 30
0.000000
  70
    32
  0
VERTEX
  8
0
  5
8A6
 10
3415.16
 20
1844.46
 30
0.000000
  70
    32
  0
VERTEX
  8
0
  5
8A7
 10
3415.16
 20
1844.43
 30
0.000000
  70
    32
  0
VERTEX
  8
0
  5
8A8
 10
3415.16
 20
1844.40
 30
0.000000
  70
    32
  0
VERTEX
  8
0
  5
8A9
 10
3415.16
 20
1844.37
 30
0.000000
  70
    32
  0
VERTEX
  8
0
  5
8AA
 10
3415.16
 20
1844.34
 30
0.000000
  70
    32
  0
VERTEX
  8
0
  5
8AB
 10
3415.16
 20
1844.31
 30
0.000000
  70
    32
  0
VERTEX
  8
0
  5
8AC
 10
3415.16
 20
1844.28
 30
0.000000
  70
    32
  0
VERTEX
  8
0
  5
8AD
 10
3415.17
 20
1844.25
 30
0.000000
  70
    32
  0
VERTEX
  8
0
  5
8AE
 10
3415.17
 20
1844.22
 30
0.000000
  70
    32
  0
VERTEX
  8
0
  5
8AF
 10
3415.17
 20
1844.18
 30
0.000000
  70
    32
  0
VERTEX
  8
0
  5
8B0
 10
3415.17
 20
1844.15
 30
0.000000
  70
    32
  0
VERTEX
  8
0
  5
8B1
 10
3415.17
 20
1844.12
 30
0.000000
  70
    32
  0
VERTEX
  8
0
  5
8B2
 10
3415.17
 20
1844.09
 30
0.000000
  70
    32
  0
VERTEX
  8
0
  5
8B3
 10
3415.17
 20
1844.06
 30
0.000000
  70
    32
  0
VERTEX
  8
0
  5
8B4
 10
3415.17
 20
1844.03
 30
0.000000
  70
    32
  0
VERTEX
  8
0
  5
8B5
 10
3415.17
 20
1844.00
 30
0.000000
  70
    32
  0
VERTEX
  8
0
  5
8B6
 10
3415.17
 20
1843.97
 30
0.000000
  70
    32
  0
VERTEX
  8
0
  5
8B7
 10
3415.17
 20
1843.93
 30
0.000000
  70
    32
  0
VERTEX
  8
0
  5
8B8
 10
3415.18
 20
1843.90
 30
0.000000
  70
    32
  0
VERTEX
  8
0
  5
8B9
 10
3415.18
 20
1843.87
 30
0.000000
  70
    32
  0
VERTEX
  8
0
  5
8BA
 10
3415.18
 20
1843.84
 30
0.000000
  70
    32
  0
VERTEX
  8
0
  5
8BB
 10
3415.18
 20
1843.81
 30
0.000000
  70
    32
  0
VERTEX
  8
0
  5
8BC
 10
3415.18
 20
1843.78
 30
0.000000
  70
    32
  0
VERTEX
  8
0
  5
8BD
 10
3415.18
 20
1843.75
 30
0.000000
  70
    32
  0
VERTEX
  8
0
  5
8BE
 10
3415.18
 20
1843.72
 30
0.000000
  70
    32
  0
VERTEX
  8
0
  5
8BF
 10
3415.18
 20
1843.69
 30
0.000000
  70
    32
  0
VERTEX
  8
0
  5
8C0
 10
3415.18
 20
1843.65
 30
0.000000
  70
    32
  0
VERTEX
  8
0
  5
8C1
 10
3415.18
 20
1843.62
 30
0.000000
  70
    32
  0
VERTEX
  8
0
  5
8C2
 10
3415.19
 20
1843.59
 30
0.000000
  70
    32
  0
VERTEX
  8
0
  5
8C3
 10
3415.19
 20
1843.56
 30
0.000000
  70
    32
  0
VERTEX
  8
0
  5
8C4
 10
3415.19
 20
1843.53
 30
0.000000
  70
    32
  0
VERTEX
  8
0
  5
8C5
 10
3415.19
 20
1843.50
 30
0.000000
  70
    32
  0
VERTEX
  8
0
  5
8C6
 10
3415.19
 20
1843.47
 30
0.000000
  70
    32
  0
VERTEX
  8
0
  5
8C7
 10
3415.19
 20
1843.44
 30
0.000000
  70
    32
  0
VERTEX
  8
0
  5
8C8
 10
3415.19
 20
1843.41
 30
0.000000
  70
    32
  0
VERTEX
  8
0
  5
8C9
 10
3415.19
 20
1843.37
 30
0.000000
  70
    32
  0
VERTEX
  8
0
  5
8CA
 10
3415.19
 20
1843.34
 30
0.000000
  70
    32
  0
VERTEX
  8
0
  5
8CB
 10
3415.19
 20
1843.31
 30
0.000000
  70
    32
  0
VERTEX
  8
0
  5
8CC
 10
3415.20
 20
1843.28
 30
0.000000
  70
    32
  0
VERTEX
  8
0
  5
8CD
 10
3415.20
 20
1843.25
 30
0.000000
  70
    32
  0
VERTEX
  8
0
  5
8CE
 10
3415.20
 20
1843.22
 30
0.000000
  70
    32
  0
VERTEX
  8
0
  5
8CF
 10
3415.20
 20
1843.19
 30
0.000000
  70
    32
  0
VERTEX
  8
0
  5
8D0
 10
3415.20
 20
1843.16
 30
0.000000
  70
    32
  0
VERTEX
  8
0
  5
8D1
 10
3415.20
 20
1843.13
 30
0.000000
  70
    32
  0
VERTEX
  8
0
  5
8D2
 10
3415.20
 20
1843.09
 30
0.000000
  70
    32
  0
VERTEX
  8
0
  5
8D3
 10
3415.20
 20
1843.06
 30
0.000000
  70
    32
  0
VERTEX
  8
0
  5
8D4
 10
3415.20
 20
1843.03
 30
0.000000
  70
    32
  0
VERTEX
  8
0
  5
8D5
 10
3415.21
 20
1843.00
 30
0.000000
  70
    32
  0
VERTEX
  8
0
  5
8D6
 10
3415.21
 20
1842.97
 30
0.000000
  70
    32
  0
VERTEX
  8
0
  5
8D7
 10
3415.21
 20
1842.94
 30
0.000000
  70
    32
  0
VERTEX
  8
0
  5
8D8
 10
3415.21
 20
1842.91
 30
0.000000
  70
    32
  0
VERTEX
  8
0
  5
8D9
 10
3415.21
 20
1842.88
 30
0.000000
  70
    32
  0
VERTEX
  8
0
  5
8DA
 10
3415.21
 20
1842.85
 30
0.000000
  70
    32
  0
VERTEX
  8
0
  5
8DB
 10
3415.21
 20
1842.81
 30
0.000000
  70
    32
  0
VERTEX
  8
0
  5
8DC
 10
3415.21
 20
1842.78
 30
0.000000
  70
    32
  0
VERTEX
  8
0
  5
8DD
 10
3415.21
 20
1842.75
 30
0.000000
  70
    32
  0
VERTEX
  8
0
  5
8DE
 10
3415.21
 20
1842.72
 30
0.000000
  70
    32
  0
VERTEX
  8
0
  5
8DF
 10
3415.22
 20
1842.69
 30
0.000000
  70
    32
  0
VERTEX
  8
0
  5
8E0
 10
3415.22
 20
1842.66
 30
0.000000
  70
    32
  0
VERTEX
  8
0
  5
8E1
 10
3415.22
 20
1842.63
 30
0.000000
  70
    32
  0
VERTEX
  8
0
  5
8E2
 10
3415.22
 20
1842.60
 30
0.000000
  70
    32
  0
VERTEX
  8
0
  5
8E3
 10
3415.22
 20
1842.57
 30
0.000000
  70
    32
  0
VERTEX
  8
0
  5
8E4
 10
3415.22
 20
1842.53
 30
0.000000
  70
    32
  0
VERTEX
  8
0
  5
8E5
 10
3415.22
 20
1842.50
 30
0.000000
  70
    32
  0
VERTEX
  8
0
  5
8E6
 10
3415.22
 20
1842.47
 30
0.000000
  70
    32
  0
VERTEX
  8
0
  5
8E7
 10
3415.22
 20
1842.44
 30
0.000000
  70
    32
  0
VERTEX
  8
0
  5
8E8
 10
3415.23
 20
1842.41
 30
0.000000
  70
    32
  0
VERTEX
  8
0
  5
8E9
 10
3415.23
 20
1842.38
 30
0.000000
  70
    32
  0
VERTEX
  8
0
  5
8EA
 10
3415.23
 20
1842.35
 30
0.000000
  70
    32
  0
VERTEX
  8
0
  5
8EB
 10
3415.23
 20
1842.32
 30
0.000000
  70
    32
  0
VERTEX
  8
0
  5
8EC
 10
3415.23
 20
1842.29
 30
0.000000
  70
    32
  0
VERTEX
  8
0
  5
8ED
 10
3415.23
 20
1842.25
 30
0.000000
  70
    32
  0
VERTEX
  8
0
  5
8EE
 10
3415.23
 20
1842.22
 30
0.000000
  70
    32
  0
VERTEX
  8
0
  5
8EF
 10
3415.23
 20
1842.19
 30
0.000000
  70
    32
  0
VERTEX
  8
0
  5
8F0
 10
3415.23
 20
1842.16
 30
0.000000
  70
    32
  0
VERTEX
  8
0
  5
8F1
 10
3415.24
 20
1842.13
 30
0.000000
  70
    32
  0
VERTEX
  8
0
  5
8F2
 10
3415.24
 20
1842.10
 30
0.000000
  70
    32
  0
VERTEX
  8
0
  5
8F3
 10
3415.24
 20
1842.07
 30
0.000000
  70
    32
  0
VERTEX
  8
0
  5
8F4
 10
3415.24
 20
1842.04
 30
0.000000
  70
    32
  0
VERTEX
  8
0
  5
8F5
 10
3415.24
 20
1842.01
 30
0.000000
  70
    32
  0
VERTEX
  8
0
  5
8F6
 10
3415.24
 20
1841.97
 30
0.000000
  70
    32
  0
VERTEX
  8
0
  5
8F7
 10
3415.24
 20
1841.94
 30
0.000000
  70
    32
  0
VERTEX
  8
0
  5
8F8
 10
3415.24
 20
1841.91
 30
0.000000
  70
    32
  0
VERTEX
  8
0
  5
8F9
 10
3415.25
 20
1841.88
 30
0.000000
  70
    32
  0
VERTEX
  8
0
  5
8FA
 10
3415.25
 20
1841.85
 30
0.000000
  70
    32
  0
VERTEX
  8
0
  5
8FB
 10
3415.25
 20
1841.82
 30
0.000000
  70
    32
  0
VERTEX
  8
0
  5
8FC
 10
3415.25
 20
1841.79
 30
0.000000
  70
    32
  0
VERTEX
  8
0
  5
8FD
 10
3415.25
 20
1841.76
 30
0.000000
  70
    32
  0
VERTEX
  8
0
  5
8FE
 10
3415.25
 20
1841.73
 30
0.000000
  70
    32
  0
VERTEX
  8
0
  5
8FF
 10
3415.25
 20
1841.69
 30
0.000000
  70
    32
  0
VERTEX
  8
0
  5
900
 10
3415.25
 20
1841.66
 30
0.000000
  70
    32
  0
VERTEX
  8
0
  5
901
 10
3415.25
 20
1841.63
 30
0.000000
  70
    32
  0
VERTEX
  8
0
  5
902
 10
3415.26
 20
1841.60
 30
0.000000
  70
    32
  0
VERTEX
  8
0
  5
903
 10
3415.26
 20
1841.57
 30
0.000000
  70
    32
  0
VERTEX
  8
0
  5
904
 10
3415.26
 20
1841.54
 30
0.000000
  70
    32
  0
VERTEX
  8
0
  5
905
 10
3415.26
 20
1841.51
 30
0.000000
  70
    32
  0
VERTEX
  8
0
  5
906
 10
3415.26
 20
1841.48
 30
0.000000
  70
    32
  0
VERTEX
  8
0
  5
907
 10
3415.26
 20
1841.44
 30
0.000000
  70
    32
  0
VERTEX
  8
0
  5
908
 10
3415.26
 20
1841.41
 30
0.000000
  70
    32
  0
VERTEX
  8
0
  5
909
 10
3415.26
 20
1841.38
 30
0.000000
  70
    32
  0
VERTEX
  8
0
  5
90A
 10
3415.27
 20
1841.35
 30
0.000000
  70
    32
  0
VERTEX
  8
0
  5
90B
 10
3415.27
 20
1841.32
 30
0.000000
  70
    32
  0
VERTEX
  8
0
  5
90C
 10
3415.27
 20
1841.29
 30
0.000000
  70
    32
  0
VERTEX
  8
0
  5
90D
 10
3415.27
 20
1841.26
 30
0.000000
  70
    32
  0
VERTEX
  8
0
  5
90E
 10
3415.27
 20
1841.23
 30
0.000000
  70
    32
  0
VERTEX
  8
0
  5
90F
 10
3415.27
 20
1841.20
 30
0.000000
  70
    32
  0
VERTEX
  8
0
  5
910
 10
3415.27
 20
1841.16
 30
0.000000
  70
    32
  0
VERTEX
  8
0
  5
911
 10
3415.27
 20
1841.13
 30
0.000000
  70
    32
  0
VERTEX
  8
0
  5
912
 10
3415.28
 20
1841.10
 30
0.000000
  70
    32
  0
VERTEX
  8
0
  5
913
 10
3415.28
 20
1841.07
 30
0.000000
  70
    32
  0
VERTEX
  8
0
  5
914
 10
3415.28
 20
1841.04
 30
0.000000
  70
    32
  0
VERTEX
  8
0
  5
915
 10
3415.28
 20
1841.01
 30
0.000000
  70
    32
  0
VERTEX
  8
0
  5
916
 10
3415.28
 20
1840.98
 30
0.000000
  70
    32
  0
VERTEX
  8
0
  5
917
 10
3415.28
 20
1840.95
 30
0.000000
  70
    32
  0
VERTEX
  8
0
  5
918
 10
3415.28
 20
1840.92
 30
0.000000
  70
    32
  0
VERTEX
  8
0
  5
919
 10
3415.28
 20
1840.88
 30
0.000000
  70
    32
  0
VERTEX
  8
0
  5
91A
 10
3415.29
 20
1840.85
 30
0.000000
  70
    32
  0
VERTEX
  8
0
  5
91B
 10
3415.29
 20
1840.82
 30
0.000000
  70
    32
  0
VERTEX
  8
0
  5
91C
 10
3415.29
 20
1840.79
 30
0.000000
  70
    32
  0
VERTEX
  8
0
  5
91D
 10
3415.29
 20
1840.76
 30
0.000000
  70
    32
  0
VERTEX
  8
0
  5
91E
 10
3415.29
 20
1840.73
 30
0.000000
  70
    32
  0
VERTEX
  8
0
  5
91F
 10
3415.29
 20
1840.70
 30
0.000000
  70
    32
  0
VERTEX
  8
0
  5
920
 10
3415.29
 20
1840.67
 30
0.000000
  70
    32
  0
VERTEX
  8
0
  5
921
 10
3415.29
 20
1840.64
 30
0.000000
  70
    32
  0
VERTEX
  8
0
  5
922
 10
3415.30
 20
1840.60
 30
0.000000
  70
    32
  0
VERTEX
  8
0
  5
923
 10
3415.30
 20
1840.57
 30
0.000000
  70
    32
  0
VERTEX
  8
0
  5
924
 10
3415.30
 20
1840.54
 30
0.000000
  70
    32
  0
VERTEX
  8
0
  5
925
 10
3415.30
 20
1840.51
 30
0.000000
  70
    32
  0
VERTEX
  8
0
  5
926
 10
3415.30
 20
1840.48
 30
0.000000
  70
    32
  0
VERTEX
  8
0
  5
927
 10
3415.30
 20
1840.45
 30
0.000000
  70
    32
  0
VERTEX
  8
0
  5
928
 10
3415.30
 20
1840.42
 30
0.000000
  70
    32
  0
VERTEX
  8
0
  5
929
 10
3415.31
 20
1840.39
 30
0.000000
  70
    32
  0
VERTEX
  8
0
  5
92A
 10
3415.31
 20
1840.36
 30
0.000000
  70
    32
  0
VERTEX
  8
0
  5
92B
 10
3415.31
 20
1840.32
 30
0.000000
  70
    32
  0
VERTEX
  8
0
  5
92C
 10
3415.31
 20
1840.29
 30
0.000000
  70
    32
  0
VERTEX
  8
0
  5
92D
 10
3415.31
 20
1840.26
 30
0.000000
  70
    32
  0
VERTEX
  8
0
  5
92E
 10
3415.31
 20
1840.23
 30
0.000000
  70
    32
  0
VERTEX
  8
0
  5
92F
 10
3415.31
 20
1840.20
 30
0.000000
  70
    32
  0
VERTEX
  8
0
  5
930
 10
3415.31
 20
1840.17
 30
0.000000
  70
    32
  0
VERTEX
  8
0
  5
931
 10
3415.32
 20
1840.14
 30
0.000000
  70
    32
  0
VERTEX
  8
0
  5
932
 10
3415.32
 20
1840.11
 30
0.000000
  70
    32
  0
VERTEX
  8
0
  5
933
 10
3415.32
 20
1840.08
 30
0.000000
  70
    32
  0
VERTEX
  8
0
  5
934
 10
3415.32
 20
1840.04
 30
0.000000
  70
    32
  0
VERTEX
  8
0
  5
935
 10
3415.32
 20
1840.01
 30
0.000000
  70
    32
  0
VERTEX
  8
0
  5
936
 10
3415.32
 20
1839.98
 30
0.000000
  70
    32
  0
VERTEX
  8
0
  5
937
 10
3415.32
 20
1839.95
 30
0.000000
  70
    32
  0
VERTEX
  8
0
  5
938
 10
3415.33
 20
1839.92
 30
0.000000
  70
    32
  0
VERTEX
  8
0
  5
939
 10
3415.33
 20
1839.89
 30
0.000000
  70
    32
  0
VERTEX
  8
0
  5
93A
 10
3415.33
 20
1839.86
 30
0.000000
  70
    32
  0
VERTEX
  8
0
  5
93B
 10
3415.33
 20
1839.83
 30
0.000000
  70
    32
  0
VERTEX
  8
0
  5
93C
 10
3415.33
 20
1839.80
 30
0.000000
  70
    32
  0
VERTEX
  8
0
  5
93D
 10
3415.33
 20
1839.76
 30
0.000000
  70
    32
  0
VERTEX
  8
0
  5
93E
 10
3415.33
 20
1839.73
 30
0.000000
  70
    32
  0
VERTEX
  8
0
  5
93F
 10
3415.34
 20
1839.70
 30
0.000000
  70
    32
  0
VERTEX
  8
0
  5
940
 10
3415.34
 20
1839.67
 30
0.000000
  70
    32
  0
VERTEX
  8
0
  5
941
 10
3415.34
 20
1839.64
 30
0.000000
  70
    32
  0
VERTEX
  8
0
  5
942
 10
3415.34
 20
1839.61
 30
0.000000
  70
    32
  0
VERTEX
  8
0
  5
943
 10
3415.34
 20
1839.58
 30
0.000000
  70
    32
  0
VERTEX
  8
0
  5
944
 10
3415.34
 20
1839.55
 30
0.000000
  70
    32
  0
VERTEX
  8
0
  5
945
 10
3415.34
 20
1839.52
 30
0.000000
  70
    32
  0
VERTEX
  8
0
  5
946
 10
3415.35
 20
1839.48
 30
0.000000
  70
    32
  0
VERTEX
  8
0
  5
947
 10
3415.35
 20
1839.45
 30
0.000000
  70
    32
  0
VERTEX
  8
0
  5
948
 10
3415.35
 20
1839.42
 30
0.000000
  70
    32
  0
VERTEX
  8
0
  5
949
 10
3415.35
 20
1839.39
 30
0.000000
  70
    32
  0
VERTEX
  8
0
  5
94A
 10
3415.35
 20
1839.36
 30
0.000000
  70
    32
  0
VERTEX
  8
0
  5
94B
 10
3415.35
 20
1839.33
 30
0.000000
  70
    32
  0
VERTEX
  8
0
  5
94C
 10
3415.35
 20
1839.30
 30
0.000000
  70
    32
  0
VERTEX
  8
0
  5
94D
 10
3415.36
 20
1839.27
 30
0.000000
  70
    32
  0
VERTEX
  8
0
  5
94E
 10
3415.36
 20
1839.24
 30
0.000000
  70
    32
  0
VERTEX
  8
0
  5
94F
 10
3415.36
 20
1839.20
 30
0.000000
  70
    32
  0
VERTEX
  8
0
  5
950
 10
3415.36
 20
1839.17
 30
0.000000
  70
    32
  0
VERTEX
  8
0
  5
951
 10
3415.36
 20
1839.14
 30
0.000000
  70
    32
  0
VERTEX
  8
0
  5
952
 10
3415.36
 20
1839.11
 30
0.000000
  70
    32
  0
VERTEX
  8
0
  5
953
 10
3415.37
 20
1839.08
 30
0.000000
  70
    32
  0
VERTEX
  8
0
  5
954
 10
3415.37
 20
1839.05
 30
0.000000
  70
    32
  0
VERTEX
  8
0
  5
955
 10
3415.37
 20
1839.02
 30
0.000000
  70
    32
  0
VERTEX
  8
0
  5
956
 10
3415.37
 20
1838.99
 30
0.000000
  70
    32
  0
VERTEX
  8
0
  5
957
 10
3415.37
 20
1838.96
 30
0.000000
  70
    32
  0
VERTEX
  8
0
  5
958
 10
3415.37
 20
1838.92
 30
0.000000
  70
    32
  0
VERTEX
  8
0
  5
959
 10
3415.37
 20
1838.89
 30
0.000000
  70
    32
  0
VERTEX
  8
0
  5
95A
 10
3415.38
 20
1838.86
 30
0.000000
  70
    32
  0
VERTEX
  8
0
  5
95B
 10
3415.38
 20
1838.83
 30
0.000000
  70
    32
  0
VERTEX
  8
0
  5
95C
 10
3415.38
 20
1838.80
 30
0.000000
  70
    32
  0
VERTEX
  8
0
  5
95D
 10
3415.38
 20
1838.77
 30
0.000000
  70
    32
  0
VERTEX
  8
0
  5
95E
 10
3415.38
 20
1838.74
 30
0.000000
  70
    32
  0
VERTEX
  8
0
  5
95F
 10
3415.38
 20
1838.71
 30
0.000000
  70
    32
  0
VERTEX
  8
0
  5
960
 10
3415.39
 20
1838.68
 30
0.000000
  70
    32
  0
VERTEX
  8
0
  5
961
 10
3415.39
 20
1838.64
 30
0.000000
  70
    32
  0
VERTEX
  8
0
  5
962
 10
3415.39
 20
1838.61
 30
0.000000
  70
    32
  0
VERTEX
  8
0
  5
963
 10
3415.39
 20
1838.58
 30
0.000000
  70
    32
  0
VERTEX
  8
0
  5
964
 10
3415.39
 20
1838.55
 30
0.000000
  70
    32
  0
VERTEX
  8
0
  5
965
 10
3415.39
 20
1838.52
 30
0.000000
  70
    32
  0
VERTEX
  8
0
  5
966
 10
3415.39
 20
1838.49
 30
0.000000
  70
    32
  0
VERTEX
  8
0
  5
967
 10
3415.40
 20
1838.46
 30
0.000000
  70
    32
  0
VERTEX
  8
0
  5
968
 10
3415.40
 20
1838.43
 30
0.000000
  70
    32
  0
VERTEX
  8
0
  5
969
 10
3415.40
 20
1838.40
 30
0.000000
  70
    32
  0
VERTEX
  8
0
  5
96A
 10
3415.40
 20
1838.37
 30
0.000000
  70
    32
  0
VERTEX
  8
0
  5
96B
 10
3415.40
 20
1838.33
 30
0.000000
  70
    32
  0
VERTEX
  8
0
  5
96C
 10
3415.40
 20
1838.30
 30
0.000000
  70
    32
  0
VERTEX
  8
0
  5
96D
 10
3415.41
 20
1838.27
 30
0.000000
  70
    32
  0
VERTEX
  8
0
  5
96E
 10
3415.41
 20
1838.24
 30
0.000000
  70
    32
  0
VERTEX
  8
0
  5
96F
 10
3415.41
 20
1838.21
 30
0.000000
  70
    32
  0
VERTEX
  8
0
  5
970
 10
3415.41
 20
1838.18
 30
0.000000
  70
    32
  0
VERTEX
  8
0
  5
971
 10
3415.41
 20
1838.15
 30
0.000000
  70
    32
  0
VERTEX
  8
0
  5
972
 10
3415.41
 20
1838.12
 30
0.000000
  70
    32
  0
VERTEX
  8
0
  5
973
 10
3415.42
 20
1838.09
 30
0.000000
  70
    32
  0
VERTEX
  8
0
  5
974
 10
3415.42
 20
1838.05
 30
0.000000
  70
    32
  0
VERTEX
  8
0
  5
975
 10
3415.42
 20
1838.02
 30
0.000000
  70
    32
  0
VERTEX
  8
0
  5
976
 10
3415.42
 20
1837.99
 30
0.000000
  70
    32
  0
VERTEX
  8
0
  5
977
 10
3415.42
 20
1837.96
 30
0.000000
  70
    32
  0
VERTEX
  8
0
  5
978
 10
3415.42
 20
1837.93
 30
0.000000
  70
    32
  0
VERTEX
  8
0
  5
979
 10
3415.43
 20
1837.90
 30
0.000000
  70
    32
  0
VERTEX
  8
0
  5
97A
 10
3415.43
 20
1837.87
 30
0.000000
  70
    32
  0
VERTEX
  8
0
  5
97B
 10
3415.43
 20
1837.84
 30
0.000000
  70
    32
  0
VERTEX
  8
0
  5
97C
 10
3415.43
 20
1837.81
 30
0.000000
  70
    32
  0
VERTEX
  8
0
  5
97D
 10
3415.43
 20
1837.77
 30
0.000000
  70
    32
  0
VERTEX
  8
0
  5
97E
 10
3415.43
 20
1837.74
 30
0.000000
  70
    32
  0
VERTEX
  8
0
  5
97F
 10
3415.44
 20
1837.71
 30
0.000000
  70
    32
  0
VERTEX
  8
0
  5
980
 10
3415.44
 20
1837.68
 30
0.000000
  70
    32
  0
VERTEX
  8
0
  5
981
 10
3415.44
 20
1837.65
 30
0.000000
  70
    32
  0
VERTEX
  8
0
  5
982
 10
3415.44
 20
1837.62
 30
0.000000
  70
    32
  0
VERTEX
  8
0
  5
983
 10
3415.44
 20
1837.59
 30
0.000000
  70
    32
  0
VERTEX
  8
0
  5
984
 10
3415.44
 20
1837.56
 30
0.000000
  70
    32
  0
VERTEX
  8
0
  5
985
 10
3415.45
 20
1837.53
 30
0.000000
  70
    32
  0
VERTEX
  8
0
  5
986
 10
3415.45
 20
1837.49
 30
0.000000
  70
    32
  0
VERTEX
  8
0
  5
987
 10
3415.45
 20
1837.46
 30
0.000000
  70
    32
  0
VERTEX
  8
0
  5
988
 10
3415.45
 20
1837.43
 30
0.000000
  70
    32
  0
VERTEX
  8
0
  5
989
 10
3415.45
 20
1837.40
 30
0.000000
  70
    32
  0
VERTEX
  8
0
  5
98A
 10
3415.45
 20
1837.37
 30
0.000000
  70
    32
  0
VERTEX
  8
0
  5
98B
 10
3415.46
 20
1837.34
 30
0.000000
  70
    32
  0
VERTEX
  8
0
  5
98C
 10
3415.46
 20
1837.31
 30
0.000000
  70
    32
  0
VERTEX
  8
0
  5
98D
 10
3415.46
 20
1837.28
 30
0.000000
  70
    32
  0
VERTEX
  8
0
  5
98E
 10
3415.46
 20
1837.25
 30
0.000000
  70
    32
  0
VERTEX
  8
0
  5
98F
 10
3415.46
 20
1837.21
 30
0.000000
  70
    32
  0
VERTEX
  8
0
  5
990
 10
3415.46
 20
1837.18
 30
0.000000
  70
    32
  0
VERTEX
  8
0
  5
991
 10
3415.47
 20
1837.15
 30
0.000000
  70
    32
  0
VERTEX
  8
0
  5
992
 10
3415.47
 20
1837.12
 30
0.000000
  70
    32
  0
VERTEX
  8
0
  5
993
 10
3415.47
 20
1837.09
 30
0.000000
  70
    32
  0
VERTEX
  8
0
  5
994
 10
3415.47
 20
1837.06
 30
0.000000
  70
    32
  0
VERTEX
  8
0
  5
995
 10
3415.47
 20
1837.03
 30
0.000000
  70
    32
  0
VERTEX
  8
0
  5
996
 10
3415.48
 20
1837.00
 30
0.000000
  70
    32
  0
VERTEX
  8
0
  5
997
 10
3415.48
 20
1836.97
 30
0.000000
  70
    32
  0
VERTEX
  8
0
  5
998
 10
3415.48
 20
1836.93
 30
0.000000
  70
    32
  0
VERTEX
  8
0
  5
999
 10
3415.48
 20
1836.90
 30
0.000000
  70
    32
  0
VERTEX
  8
0
  5
99A
 10
3415.48
 20
1836.87
 30
0.000000
  70
    32
  0
VERTEX
  8
0
  5
99B
 10
3415.48
 20
1836.84
 30
0.000000
  70
    32
  0
VERTEX
  8
0
  5
99C
 10
3415.49
 20
1836.81
 30
0.000000
  70
    32
  0
VERTEX
  8
0
  5
99D
 10
3415.49
 20
1836.78
 30
0.000000
  70
    32
  0
VERTEX
  8
0
  5
99E
 10
3415.49
 20
1836.75
 30
0.000000
  70
    32
  0
VERTEX
  8
0
  5
99F
 10
3415.49
 20
1836.72
 30
0.000000
  70
    32
  0
VERTEX
  8
0
  5
9A0
 10
3415.49
 20
1836.69
 30
0.000000
  70
    32
  0
VERTEX
  8
0
  5
9A1
 10
3415.50
 20
1836.65
 30
0.000000
  70
    32
  0
VERTEX
  8
0
  5
9A2
 10
3415.50
 20
1836.62
 30
0.000000
  70
    32
  0
VERTEX
  8
0
  5
9A3
 10
3415.50
 20
1836.59
 30
0.000000
  70
    32
  0
VERTEX
  8
0
  5
9A4
 10
3415.50
 20
1836.56
 30
0.000000
  70
    32
  0
VERTEX
  8
0
  5
9A5
 10
3415.50
 20
1836.53
 30
0.000000
  70
    32
  0
VERTEX
  8
0
  5
9A6
 10
3415.50
 20
1836.50
 30
0.000000
  70
    32
  0
VERTEX
  8
0
  5
9A7
 10
3415.51
 20
1836.47
 30
0.000000
  70
    32
  0
VERTEX
  8
0
  5
9A8
 10
3415.51
 20
1836.44
 30
0.000000
  70
    32
  0
VERTEX
  8
0
  5
9A9
 10
3415.51
 20
1836.41
 30
0.000000
  70
    32
  0
VERTEX
  8
0
  5
9AA
 10
3415.51
 20
1836.38
 30
0.000000
  70
    32
  0
VERTEX
  8
0
  5
9AB
 10
3415.51
 20
1836.34
 30
0.000000
  70
    32
  0
VERTEX
  8
0
  5
9AC
 10
3415.52
 20
1836.31
 30
0.000000
  70
    32
  0
VERTEX
  8
0
  5
9AD
 10
3415.52
 20
1836.28
 30
0.000000
  70
    32
  0
VERTEX
  8
0
  5
9AE
 10
3415.52
 20
1836.25
 30
0.000000
  70
    32
  0
VERTEX
  8
0
  5
9AF
 10
3415.52
 20
1836.22
 30
0.000000
  70
    32
  0
VERTEX
  8
0
  5
9B0
 10
3415.52
 20
1836.19
 30
0.000000
  70
    32
  0
VERTEX
  8
0
  5
9B1
 10
3415.53
 20
1836.16
 30
0.000000
  70
    32
  0
VERTEX
  8
0
  5
9B2
 10
3415.53
 20
1836.13
 30
0.000000
  70
    32
  0
VERTEX
  8
0
  5
9B3
 10
3415.53
 20
1836.10
 30
0.000000
  70
    32
  0
VERTEX
  8
0
  5
9B4
 10
3415.53
 20
1836.06
 30
0.000000
  70
    32
  0
VERTEX
  8
0
  5
9B5
 10
3415.53
 20
1836.03
 30
0.000000
  70
    32
  0
VERTEX
  8
0
  5
9B6
 10
3415.53
 20
1836.00
 30
0.000000
  70
    32
  0
VERTEX
  8
0
  5
9B7
 10
3415.54
 20
1835.97
 30
0.000000
  70
    32
  0
VERTEX
  8
0
  5
9B8
 10
3415.54
 20
1835.94
 30
0.000000
  70
    32
  0
VERTEX
  8
0
  5
9B9
 10
3415.54
 20
1835.91
 30
0.000000
  70
    32
  0
VERTEX
  8
0
  5
9BA
 10
3415.54
 20
1835.88
 30
0.000000
  70
    32
  0
VERTEX
  8
0
  5
9BB
 10
3415.54
 20
1835.85
 30
0.000000
  70
    32
  0
VERTEX
  8
0
  5
9BC
 10
3415.55
 20
1835.82
 30
0.000000
  70
    32
  0
VERTEX
  8
0
  5
9BD
 10
3415.55
 20
1835.78
 30
0.000000
  70
    32
  0
VERTEX
  8
0
  5
9BE
 10
3415.55
 20
1835.75
 30
0.000000
  70
    32
  0
VERTEX
  8
0
  5
9BF
 10
3415.55
 20
1835.72
 30
0.000000
  70
    32
  0
VERTEX
  8
0
  5
9C0
 10
3415.55
 20
1835.69
 30
0.000000
  70
    32
  0
VERTEX
  8
0
  5
9C1
 10
3415.56
 20
1835.66
 30
0.000000
  70
    32
  0
VERTEX
  8
0
  5
9C2
 10
3415.56
 20
1835.63
 30
0.000000
  70
    32
  0
VERTEX
  8
0
  5
9C3
 10
3415.56
 20
1835.60
 30
0.000000
  70
    32
  0
VERTEX
  8
0
  5
9C4
 10
3415.56
 20
1835.57
 30
0.000000
  70
    32
  0
VERTEX
  8
0
  5
9C5
 10
3415.56
 20
1835.54
 30
0.000000
  70
    32
  0
VERTEX
  8
0
  5
9C6
 10
3415.57
 20
1835.50
 30
0.000000
  70
    32
  0
VERTEX
  8
0
  5
9C7
 10
3415.57
 20
1835.47
 30
0.000000
  70
    32
  0
VERTEX
  8
0
  5
9C8
 10
3415.57
 20
1835.44
 30
0.000000
  70
    32
  0
VERTEX
  8
0
  5
9C9
 10
3415.57
 20
1835.41
 30
0.000000
  70
    32
  0
VERTEX
  8
0
  5
9CA
 10
3415.57
 20
1835.38
 30
0.000000
  70
    32
  0
VERTEX
  8
0
  5
9CB
 10
3415.58
 20
1835.35
 30
0.000000
  70
    32
  0
VERTEX
  8
0
  5
9CC
 10
3415.58
 20
1835.32
 30
0.000000
  70
    32
  0
VERTEX
  8
0
  5
9CD
 10
3415.58
 20
1835.29
 30
0.000000
  70
    32
  0
VERTEX
  8
0
  5
9CE
 10
3415.58
 20
1835.26
 30
0.000000
  70
    32
  0
VERTEX
  8
0
  5
9CF
 10
3415.58
 20
1835.23
 30
0.000000
  70
    32
  0
VERTEX
  8
0
  5
9D0
 10
3415.59
 20
1835.19
 30
0.000000
  70
    32
  0
VERTEX
  8
0
  5
9D1
 10
3415.59
 20
1835.16
 30
0.000000
  70
    32
  0
VERTEX
  8
0
  5
9D2
 10
3415.59
 20
1835.13
 30
0.000000
  70
    32
  0
VERTEX
  8
0
  5
9D3
 10
3415.59
 20
1835.10
 30
0.000000
  70
    32
  0
VERTEX
  8
0
  5
9D4
 10
3415.60
 20
1835.07
 30
0.000000
  70
    32
  0
VERTEX
  8
0
  5
9D5
 10
3415.60
 20
1835.04
 30
0.000000
  70
    32
  0
VERTEX
  8
0
  5
9D6
 10
3415.60
 20
1835.01
 30
0.000000
  70
    32
  0
VERTEX
  8
0
  5
9D7
 10
3415.60
 20
1834.98
 30
0.000000
  70
    32
  0
VERTEX
  8
0
  5
9D8
 10
3415.60
 20
1834.95
 30
0.000000
  70
    32
  0
VERTEX
  8
0
  5
9D9
 10
3415.61
 20
1834.91
 30
0.000000
  70
    32
  0
VERTEX
  8
0
  5
9DA
 10
3415.61
 20
1834.88
 30
0.000000
  70
    32
  0
VERTEX
  8
0
  5
9DB
 10
3415.61
 20
1834.85
 30
0.000000
  70
    32
  0
VERTEX
  8
0
  5
9DC
 10
3415.61
 20
1834.82
 30
0.000000
  70
    32
  0
VERTEX
  8
0
  5
9DD
 10
3415.61
 20
1834.79
 30
0.000000
  70
    32
  0
VERTEX
  8
0
  5
9DE
 10
3415.62
 20
1834.76
 30
0.000000
  70
    32
  0
VERTEX
  8
0
  5
9DF
 10
3415.62
 20
1834.73
 30
0.000000
  70
    32
  0
VERTEX
  8
0
  5
9E0
 10
3415.62
 20
1834.70
 30
0.000000
  70
    32
  0
VERTEX
  8
0
  5
9E1
 10
3415.62
 20
1834.67
 30
0.000000
  70
    32
  0
VERTEX
  8
0
  5
9E2
 10
3415.62
 20
1834.63
 30
0.000000
  70
    32
  0
VERTEX
  8
0
  5
9E3
 10
3415.63
 20
1834.60
 30
0.000000
  70
    32
  0
VERTEX
  8
0
  5
9E4
 10
3415.63
 20
1834.57
 30
0.000000
  70
    32
  0
VERTEX
  8
0
  5
9E5
 10
3415.63
 20
1834.54
 30
0.000000
  70
    32
  0
VERTEX
  8
0
  5
9E6
 10
3415.63
 20
1834.51
 30
0.000000
  70
    32
  0
VERTEX
  8
0
  5
9E7
 10
3415.64
 20
1834.48
 30
0.000000
  70
    32
  0
VERTEX
  8
0
  5
9E8
 10
3415.64
 20
1834.45
 30
0.000000
  70
    32
  0
VERTEX
  8
0
  5
9E9
 10
3415.64
 20
1834.42
 30
0.000000
  70
    32
  0
VERTEX
  8
0
  5
9EA
 10
3415.64
 20
1834.39
 30
0.000000
  70
    32
  0
VERTEX
  8
0
  5
9EB
 10
3415.64
 20
1834.36
 30
0.000000
  70
    32
  0
VERTEX
  8
0
  5
9EC
 10
3415.65
 20
1834.32
 30
0.000000
  70
    32
  0
VERTEX
  8
0
  5
9ED
 10
3415.65
 20
1834.29
 30
0.000000
  70
    32
  0
VERTEX
  8
0
  5
9EE
 10
3415.65
 20
1834.26
 30
0.000000
  70
    32
  0
VERTEX
  8
0
  5
9EF
 10
3415.65
 20
1834.23
 30
0.000000
  70
    32
  0
VERTEX
  8
0
  5
9F0
 10
3415.66
 20
1834.20
 30
0.000000
  70
    32
  0
VERTEX
  8
0
  5
9F1
 10
3415.66
 20
1834.17
 30
0.000000
  70
    32
  0
VERTEX
  8
0
  5
9F2
 10
3415.66
 20
1834.14
 30
0.000000
  70
    32
  0
VERTEX
  8
0
  5
9F3
 10
3415.66
 20
1834.11
 30
0.000000
  70
    32
  0
VERTEX
  8
0
  5
9F4
 10
3415.66
 20
1834.08
 30
0.000000
  70
    32
  0
VERTEX
  8
0
  5
9F5
 10
3415.67
 20
1834.04
 30
0.000000
  70
    32
  0
VERTEX
  8
0
  5
9F6
 10
3415.67
 20
1834.01
 30
0.000000
  70
    32
  0
VERTEX
  8
0
  5
9F7
 10
3415.67
 20
1833.98
 30
0.000000
  70
    32
  0
VERTEX
  8
0
  5
9F8
 10
3415.67
 20
1833.95
 30
0.000000
  70
    32
  0
VERTEX
  8
0
  5
9F9
 10
3415.68
 20
1833.92
 30
0.000000
  70
    32
  0
VERTEX
  8
0
  5
9FA
 10
3415.68
 20
1833.89
 30
0.000000
  70
    32
  0
VERTEX
  8
0
  5
9FB
 10
3415.68
 20
1833.86
 30
0.000000
  70
    32
  0
VERTEX
  8
0
  5
9FC
 10
3415.68
 20
1833.83
 30
0.000000
  70
    32
  0
VERTEX
  8
0
  5
9FD
 10
3415.69
 20
1833.80
 30
0.000000
  70
    32
  0
VERTEX
  8
0
  5
9FE
 10
3415.69
 20
1833.77
 30
0.000000
  70
    32
  0
VERTEX
  8
0
  5
9FF
 10
3415.69
 20
1833.73
 30
0.000000
  70
    32
  0
VERTEX
  8
0
  5
A00
 10
3415.69
 20
1833.70
 30
0.000000
  70
    32
  0
VERTEX
  8
0
  5
A01
 10
3415.69
 20
1833.67
 30
0.000000
  70
    32
  0
VERTEX
  8
0
  5
A02
 10
3415.70
 20
1833.64
 30
0.000000
  70
    32
  0
VERTEX
  8
0
  5
A03
 10
3415.70
 20
1833.61
 30
0.000000
  70
    32
  0
VERTEX
  8
0
  5
A04
 10
3415.70
 20
1833.58
 30
0.000000
  70
    32
  0
VERTEX
  8
0
  5
A05
 10
3415.70
 20
1833.55
 30
0.000000
  70
    32
  0
VERTEX
  8
0
  5
A06
 10
3415.71
 20
1833.52
 30
0.000000
  70
    32
  0
VERTEX
  8
0
  5
A07
 10
3415.71
 20
1833.49
 30
0.000000
  70
    32
  0
VERTEX
  8
0
  5
A08
 10
3415.71
 20
1833.45
 30
0.000000
  70
    32
  0
VERTEX
  8
0
  5
A09
 10
3415.71
 20
1833.42
 30
0.000000
  70
    32
  0
VERTEX
  8
0
  5
A0A
 10
3415.72
 20
1833.39
 30
0.000000
  70
    32
  0
VERTEX
  8
0
  5
A0B
 10
3415.72
 20
1833.36
 30
0.000000
  70
    32
  0
VERTEX
  8
0
  5
A0C
 10
3415.72
 20
1833.33
 30
0.000000
  70
    32
  0
VERTEX
  8
0
  5
A0D
 10
3415.72
 20
1833.30
 30
0.000000
  70
    32
  0
VERTEX
  8
0
  5
A0E
 10
3415.73
 20
1833.27
 30
0.000000
  70
    32
  0
VERTEX
  8
0
  5
A0F
 10
3415.73
 20
1833.24
 30
0.000000
  70
    32
  0
VERTEX
  8
0
  5
A10
 10
3415.73
 20
1833.21
 30
0.000000
  70
    32
  0
VERTEX
  8
0
  5
A11
 10
3415.73
 20
1833.18
 30
0.000000
  70
    32
  0
VERTEX
  8
0
  5
A12
 10
3415.74
 20
1833.14
 30
0.000000
  70
    32
  0
VERTEX
  8
0
  5
A13
 10
3415.74
 20
1833.11
 30
0.000000
  70
    32
  0
VERTEX
  8
0
  5
A14
 10
3415.74
 20
1833.08
 30
0.000000
  70
    32
  0
VERTEX
  8
0
  5
A15
 10
3415.74
 20
1833.05
 30
0.000000
  70
    32
  0
VERTEX
  8
0
  5
A16
 10
3415.75
 20
1833.02
 30
0.000000
  70
    32
  0
VERTEX
  8
0
  5
A17
 10
3415.75
 20
1832.99
 30
0.000000
  70
    32
  0
VERTEX
  8
0
  5
A18
 10
3415.75
 20
1832.96
 30
0.000000
  70
    32
  0
VERTEX
  8
0
  5
A19
 10
3415.75
 20
1832.93
 30
0.000000
  70
    32
  0
VERTEX
  8
0
  5
A1A
 10
3415.76
 20
1832.90
 30
0.000000
  70
    32
  0
VERTEX
  8
0
  5
A1B
 10
3415.76
 20
1832.86
 30
0.000000
  70
    32
  0
VERTEX
  8
0
  5
A1C
 10
3415.76
 20
1832.83
 30
0.000000
  70
    32
  0
VERTEX
  8
0
  5
A1D
 10
3415.76
 20
1832.80
 30
0.000000
  70
    32
  0
VERTEX
  8
0
  5
A1E
 10
3415.77
 20
1832.77
 30
0.000000
  70
    32
  0
VERTEX
  8
0
  5
A1F
 10
3415.77
 20
1832.74
 30
0.000000
  70
    32
  0
VERTEX
  8
0
  5
A20
 10
3415.77
 20
1832.71
 30
0.000000
  70
    32
  0
VERTEX
  8
0
  5
A21
 10
3415.77
 20
1832.68
 30
0.000000
  70
    32
  0
VERTEX
  8
0
  5
A22
 10
3415.78
 20
1832.65
 30
0.000000
  70
    32
  0
VERTEX
  8
0
  5
A23
 10
3415.78
 20
1832.62
 30
0.000000
  70
    32
  0
VERTEX
  8
0
  5
A24
 10
3415.78
 20
1832.59
 30
0.000000
  70
    32
  0
VERTEX
  8
0
  5
A25
 10
3415.78
 20
1832.55
 30
0.000000
  70
    32
  0
VERTEX
  8
0
  5
A26
 10
3415.79
 20
1832.52
 30
0.000000
  70
    32
  0
VERTEX
  8
0
  5
A27
 10
3415.79
 20
1832.49
 30
0.000000
  70
    32
  0
VERTEX
  8
0
  5
A28
 10
3415.79
 20
1832.46
 30
0.000000
  70
    32
  0
VERTEX
  8
0
  5
A29
 10
3415.79
 20
1832.43
 30
0.000000
  70
    32
  0
VERTEX
  8
0
  5
A2A
 10
3415.80
 20
1832.40
 30
0.000000
  70
    32
  0
VERTEX
  8
0
  5
A2B
 10
3415.80
 20
1832.37
 30
0.000000
  70
    32
  0
VERTEX
  8
0
  5
A2C
 10
3415.80
 20
1832.34
 30
0.000000
  70
    32
  0
VERTEX
  8
0
  5
A2D
 10
3415.80
 20
1832.31
 30
0.000000
  70
    32
  0
VERTEX
  8
0
  5
A2E
 10
3415.81
 20
1832.27
 30
0.000000
  70
    32
  0
VERTEX
  8
0
  5
A2F
 10
3415.81
 20
1832.24
 30
0.000000
  70
    32
  0
VERTEX
  8
0
  5
A30
 10
3415.81
 20
1832.21
 30
0.000000
  70
    32
  0
VERTEX
  8
0
  5
A31
 10
3415.81
 20
1832.18
 30
0.000000
  70
    32
  0
VERTEX
  8
0
  5
A32
 10
3415.82
 20
1832.15
 30
0.000000
  70
    32
  0
VERTEX
  8
0
  5
A33
 10
3415.82
 20
1832.12
 30
0.000000
  70
    32
  0
VERTEX
  8
0
  5
A34
 10
3415.82
 20
1832.09
 30
0.000000
  70
    32
  0
VERTEX
  8
0
  5
A35
 10
3415.83
 20
1832.06
 30
0.000000
  70
    32
  0
VERTEX
  8
0
  5
A36
 10
3415.83
 20
1832.03
 30
0.000000
  70
    32
  0
VERTEX
  8
0
  5
A37
 10
3415.83
 20
1832.00
 30
0.000000
  70
    32
  0
VERTEX
  8
0
  5
A38
 10
3415.83
 20
1831.96
 30
0.000000
  70
    32
  0
VERTEX
  8
0
  5
A39
 10
3415.84
 20
1831.93
 30
0.000000
  70
    32
  0
VERTEX
  8
0
  5
A3A
 10
3415.84
 20
1831.90
 30
0.000000
  70
    32
  0
VERTEX
  8
0
  5
A3B
 10
3415.84
 20
1831.87
 30
0.000000
  70
    32
  0
VERTEX
  8
0
  5
A3C
 10
3415.84
 20
1831.84
 30
0.000000
  70
    32
  0
VERTEX
  8
0
  5
A3D
 10
3415.85
 20
1831.81
 30
0.000000
  70
    32
  0
VERTEX
  8
0
  5
A3E
 10
3415.85
 20
1831.78
 30
0.000000
  70
    32
  0
VERTEX
  8
0
  5
A3F
 10
3415.85
 20
1831.75
 30
0.000000
  70
    32
  0
VERTEX
  8
0
  5
A40
 10
3415.86
 20
1831.72
 30
0.000000
  70
    32
  0
VERTEX
  8
0
  5
A41
 10
3415.86
 20
1831.69
 30
0.000000
  70
    32
  0
VERTEX
  8
0
  5
A42
 10
3415.86
 20
1831.65
 30
0.000000
  70
    32
  0
VERTEX
  8
0
  5
A43
 10
3415.86
 20
1831.62
 30
0.000000
  70
    32
  0
VERTEX
  8
0
  5
A44
 10
3415.87
 20
1831.59
 30
0.000000
  70
    32
  0
VERTEX
  8
0
  5
A45
 10
3415.87
 20
1831.56
 30
0.000000
  70
    32
  0
VERTEX
  8
0
  5
A46
 10
3415.87
 20
1831.53
 30
0.000000
  70
    32
  0
VERTEX
  8
0
  5
A47
 10
3415.88
 20
1831.50
 30
0.000000
  70
    32
  0
VERTEX
  8
0
  5
A48
 10
3415.88
 20
1831.47
 30
0.000000
  70
    32
  0
VERTEX
  8
0
  5
A49
 10
3415.88
 20
1831.44
 30
0.000000
  70
    32
  0
VERTEX
  8
0
  5
A4A
 10
3415.88
 20
1831.41
 30
0.000000
  70
    32
  0
VERTEX
  8
0
  5
A4B
 10
3415.89
 20
1831.38
 30
0.000000
  70
    32
  0
VERTEX
  8
0
  5
A4C
 10
3415.89
 20
1831.34
 30
0.000000
  70
    32
  0
VERTEX
  8
0
  5
A4D
 10
3415.89
 20
1831.31
 30
0.000000
  70
    32
  0
VERTEX
  8
0
  5
A4E
 10
3415.90
 20
1831.28
 30
0.000000
  70
    32
  0
VERTEX
  8
0
  5
A4F
 10
3415.90
 20
1831.25
 30
0.000000
  70
    32
  0
VERTEX
  8
0
  5
A50
 10
3415.90
 20
1831.22
 30
0.000000
  70
    32
  0
VERTEX
  8
0
  5
A51
 10
3415.90
 20
1831.19
 30
0.000000
  70
    32
  0
VERTEX
  8
0
  5
A52
 10
3415.91
 20
1831.16
 30
0.000000
  70
    32
  0
VERTEX
  8
0
  5
A53
 10
3415.91
 20
1831.13
 30
0.000000
  70
    32
  0
VERTEX
  8
0
  5
A54
 10
3415.91
 20
1831.10
 30
0.000000
  70
    32
  0
VERTEX
  8
0
  5
A55
 10
3415.92
 20
1831.07
 30
0.000000
  70
    32
  0
VERTEX
  8
0
  5
A56
 10
3415.92
 20
1831.03
 30
0.000000
  70
    32
  0
VERTEX
  8
0
  5
A57
 10
3415.92
 20
1831.00
 30
0.000000
  70
    32
  0
VERTEX
  8
0
  5
A58
 10
3415.92
 20
1830.97
 30
0.000000
  70
    32
  0
VERTEX
  8
0
  5
A59
 10
3415.93
 20
1830.94
 30
0.000000
  70
    32
  0
VERTEX
  8
0
  5
A5A
 10
3415.93
 20
1830.91
 30
0.000000
  70
    32
  0
VERTEX
  8
0
  5
A5B
 10
3415.93
 20
1830.88
 30
0.000000
  70
    32
  0
VERTEX
  8
0
  5
A5C
 10
3415.94
 20
1830.85
 30
0.000000
  70
    32
  0
VERTEX
  8
0
  5
A5D
 10
3415.94
 20
1830.82
 30
0.000000
  70
    32
  0
VERTEX
  8
0
  5
A5E
 10
3415.94
 20
1830.79
 30
0.000000
  70
    32
  0
VERTEX
  8
0
  5
A5F
 10
3415.95
 20
1830.76
 30
0.000000
  70
    32
  0
VERTEX
  8
0
  5
A60
 10
3415.95
 20
1830.72
 30
0.000000
  70
    32
  0
VERTEX
  8
0
  5
A61
 10
3415.95
 20
1830.69
 30
0.000000
  70
    32
  0
VERTEX
  8
0
  5
A62
 10
3415.95
 20
1830.66
 30
0.000000
  70
    32
  0
VERTEX
  8
0
  5
A63
 10
3415.96
 20
1830.63
 30
0.000000
  70
    32
  0
VERTEX
  8
0
  5
A64
 10
3415.96
 20
1830.60
 30
0.000000
  70
    32
  0
VERTEX
  8
0
  5
A65
 10
3415.96
 20
1830.57
 30
0.000000
  70
    32
  0
VERTEX
  8
0
  5
A66
 10
3415.97
 20
1830.54
 30
0.000000
  70
    32
  0
VERTEX
  8
0
  5
A67
 10
3415.97
 20
1830.51
 30
0.000000
  70
    32
  0
VERTEX
  8
0
  5
A68
 10
3415.97
 20
1830.48
 30
0.000000
  70
    32
  0
VERTEX
  8
0
  5
A69
 10
3415.98
 20
1830.45
 30
0.000000
  70
    32
  0
VERTEX
  8
0
  5
A6A
 10
3415.98
 20
1830.41
 30
0.000000
  70
    32
  0
VERTEX
  8
0
  5
A6B
 10
3415.98
 20
1830.38
 30
0.000000
  70
    32
  0
VERTEX
  8
0
  5
A6C
 10
3415.99
 20
1830.35
 30
0.000000
  70
    32
  0
VERTEX
  8
0
  5
A6D
 10
3415.99
 20
1830.32
 30
0.000000
  70
    32
  0
VERTEX
  8
0
  5
A6E
 10
3415.99
 20
1830.29
 30
0.000000
  70
    32
  0
VERTEX
  8
0
  5
A6F
 10
3416.00
 20
1830.26
 30
0.000000
  70
    32
  0
VERTEX
  8
0
  5
A70
 10
3416.00
 20
1830.23
 30
0.000000
  70
    32
  0
VERTEX
  8
0
  5
A71
 10
3416.00
 20
1830.20
 30
0.000000
  70
    32
  0
VERTEX
  8
0
  5
A72
 10
3416.01
 20
1830.17
 30
0.000000
  70
    32
  0
VERTEX
  8
0
  5
A73
 10
3416.01
 20
1830.14
 30
0.000000
  70
    32
  0
VERTEX
  8
0
  5
A74
 10
3416.01
 20
1830.10
 30
0.000000
  70
    32
  0
VERTEX
  8
0
  5
A75
 10
3416.01
 20
1830.07
 30
0.000000
  70
    32
  0
VERTEX
  8
0
  5
A76
 10
3416.02
 20
1830.04
 30
0.000000
  70
    32
  0
VERTEX
  8
0
  5
A77
 10
3416.02
 20
1830.01
 30
0.000000
  70
    32
  0
VERTEX
  8
0
  5
A78
 10
3416.02
 20
1829.98
 30
0.000000
  70
    32
  0
VERTEX
  8
0
  5
A79
 10
3416.03
 20
1829.95
 30
0.000000
  70
    32
  0
VERTEX
  8
0
  5
A7A
 10
3416.03
 20
1829.92
 30
0.000000
  70
    32
  0
VERTEX
  8
0
  5
A7B
 10
3416.03
 20
1829.89
 30
0.000000
  70
    32
  0
VERTEX
  8
0
  5
A7C
 10
3416.04
 20
1829.86
 30
0.000000
  70
    32
  0
VERTEX
  8
0
  5
A7D
 10
3416.04
 20
1829.83
 30
0.000000
  70
    32
  0
VERTEX
  8
0
  5
A7E
 10
3416.04
 20
1829.79
 30
0.000000
  70
    32
  0
VERTEX
  8
0
  5
A7F
 10
3416.05
 20
1829.76
 30
0.000000
  70
    32
  0
VERTEX
  8
0
  5
A80
 10
3416.05
 20
1829.73
 30
0.000000
  70
    32
  0
VERTEX
  8
0
  5
A81
 10
3416.05
 20
1829.70
 30
0.000000
  70
    32
  0
VERTEX
  8
0
  5
A82
 10
3416.06
 20
1829.67
 30
0.000000
  70
    32
  0
VERTEX
  8
0
  5
A83
 10
3416.06
 20
1829.64
 30
0.000000
  70
    32
  0
VERTEX
  8
0
  5
A84
 10
3416.06
 20
1829.61
 30
0.000000
  70
    32
  0
VERTEX
  8
0
  5
A85
 10
3416.07
 20
1829.58
 30
0.000000
  70
    32
  0
VERTEX
  8
0
  5
A86
 10
3416.07
 20
1829.55
 30
0.000000
  70
    32
  0
VERTEX
  8
0
  5
A87
 10
3416.07
 20
1829.52
 30
0.000000
  70
    32
  0
VERTEX
  8
0
  5
A88
 10
3416.08
 20
1829.49
 30
0.000000
  70
    32
  0
VERTEX
  8
0
  5
A89
 10
3416.08
 20
1829.45
 30
0.000000
  70
    32
  0
VERTEX
  8
0
  5
A8A
 10
3416.09
 20
1829.42
 30
0.000000
  70
    32
  0
VERTEX
  8
0
  5
A8B
 10
3416.09
 20
1829.39
 30
0.000000
  70
    32
  0
VERTEX
  8
0
  5
A8C
 10
3416.09
 20
1829.36
 30
0.000000
  70
    32
  0
VERTEX
  8
0
  5
A8D
 10
3416.10
 20
1829.33
 30
0.000000
  70
    32
  0
VERTEX
  8
0
  5
A8E
 10
3416.10
 20
1829.30
 30
0.000000
  70
    32
  0
VERTEX
  8
0
  5
A8F
 10
3416.10
 20
1829.27
 30
0.000000
  70
    32
  0
VERTEX
  8
0
  5
A90
 10
3416.11
 20
1829.24
 30
0.000000
  70
    32
  0
VERTEX
  8
0
  5
A91
 10
3416.11
 20
1829.21
 30
0.000000
  70
    32
  0
VERTEX
  8
0
  5
A92
 10
3416.11
 20
1829.18
 30
0.000000
  70
    32
  0
VERTEX
  8
0
  5
A93
 10
3416.12
 20
1829.14
 30
0.000000
  70
    32
  0
VERTEX
  8
0
  5
A94
 10
3416.12
 20
1829.11
 30
0.000000
  70
    32
  0
VERTEX
  8
0
  5
A95
 10
3416.12
 20
1829.08
 30
0.000000
  70
    32
  0
VERTEX
  8
0
  5
A96
 10
3416.13
 20
1829.05
 30
0.000000
  70
    32
  0
VERTEX
  8
0
  5
A97
 10
3416.13
 20
1829.02
 30
0.000000
  70
    32
  0
VERTEX
  8
0
  5
A98
 10
3416.13
 20
1828.99
 30
0.000000
  70
    32
  0
VERTEX
  8
0
  5
A99
 10
3416.14
 20
1828.96
 30
0.000000
  70
    32
  0
VERTEX
  8
0
  5
A9A
 10
3416.14
 20
1828.93
 30
0.000000
  70
    32
  0
VERTEX
  8
0
  5
A9B
 10
3416.15
 20
1828.90
 30
0.000000
  70
    32
  0
VERTEX
  8
0
  5
A9C
 10
3416.15
 20
1828.87
 30
0.000000
  70
    32
  0
VERTEX
  8
0
  5
A9D
 10
3416.15
 20
1828.84
 30
0.000000
  70
    32
  0
VERTEX
  8
0
  5
A9E
 10
3416.16
 20
1828.80
 30
0.000000
  70
    32
  0
VERTEX
  8
0
  5
A9F
 10
3416.16
 20
1828.77
 30
0.000000
  70
    32
  0
VERTEX
  8
0
  5
AA0
 10
3416.16
 20
1828.74
 30
0.000000
  70
    32
  0
VERTEX
  8
0
  5
AA1
 10
3416.17
 20
1828.71
 30
0.000000
  70
    32
  0
VERTEX
  8
0
  5
AA2
 10
3416.17
 20
1828.68
 30
0.000000
  70
    32
  0
VERTEX
  8
0
  5
AA3
 10
3416.18
 20
1828.65
 30
0.000000
  70
    32
  0
VERTEX
  8
0
  5
AA4
 10
3416.18
 20
1828.62
 30
0.000000
  70
    32
  0
VERTEX
  8
0
  5
AA5
 10
3416.18
 20
1828.59
 30
0.000000
  70
    32
  0
VERTEX
  8
0
  5
AA6
 10
3416.19
 20
1828.56
 30
0.000000
  70
    32
  0
VERTEX
  8
0
  5
AA7
 10
3416.19
 20
1828.53
 30
0.000000
  70
    32
  0
VERTEX
  8
0
  5
AA8
 10
3416.19
 20
1828.50
 30
0.000000
  70
    32
  0
VERTEX
  8
0
  5
AA9
 10
3416.20
 20
1828.46
 30
0.000000
  70
    32
  0
VERTEX
  8
0
  5
AAA
 10
3416.20
 20
1828.43
 30
0.000000
  70
    32
  0
VERTEX
  8
0
  5
AAB
 10
3416.21
 20
1828.40
 30
0.000000
  70
    32
  0
VERTEX
  8
0
  5
AAC
 10
3416.21
 20
1828.37
 30
0.000000
  70
    32
  0
VERTEX
  8
0
  5
AAD
 10
3416.21
 20
1828.34
 30
0.000000
  70
    32
  0
VERTEX
  8
0
  5
AAE
 10
3416.22
 20
1828.31
 30
0.000000
  70
    32
  0
VERTEX
  8
0
  5
AAF
 10
3416.22
 20
1828.28
 30
0.000000
  70
    32
  0
VERTEX
  8
0
  5
AB0
 10
3416.23
 20
1828.25
 30
0.000000
  70
    32
  0
VERTEX
  8
0
  5
AB1
 10
3416.23
 20
1828.22
 30
0.000000
  70
    32
  0
VERTEX
  8
0
  5
AB2
 10
3416.23
 20
1828.19
 30
0.000000
  70
    32
  0
VERTEX
  8
0
  5
AB3
 10
3416.24
 20
1828.16
 30
0.000000
  70
    32
  0
VERTEX
  8
0
  5
AB4
 10
3416.24
 20
1828.12
 30
0.000000
  70
    32
  0
VERTEX
  8
0
  5
AB5
 10
3416.25
 20
1828.09
 30
0.000000
  70
    32
  0
VERTEX
  8
0
  5
AB6
 10
3416.25
 20
1828.06
 30
0.000000
  70
    32
  0
VERTEX
  8
0
  5
AB7
 10
3416.25
 20
1828.03
 30
0.000000
  70
    32
  0
VERTEX
  8
0
  5
AB8
 10
3416.26
 20
1828.00
 30
0.000000
  70
    32
  0
VERTEX
  8
0
  5
AB9
 10
3416.26
 20
1827.97
 30
0.000000
  70
    32
  0
VERTEX
  8
0
  5
ABA
 10
3416.27
 20
1827.94
 30
0.000000
  70
    32
  0
VERTEX
  8
0
  5
ABB
 10
3416.27
 20
1827.91
 30
0.000000
  70
    32
  0
VERTEX
  8
0
  5
ABC
 10
3416.27
 20
1827.88
 30
0.000000
  70
    32
  0
VERTEX
  8
0
  5
ABD
 10
3416.28
 20
1827.85
 30
0.000000
  70
    32
  0
VERTEX
  8
0
  5
ABE
 10
3416.28
 20
1827.82
 30
0.000000
  70
    32
  0
VERTEX
  8
0
  5
ABF
 10
3416.29
 20
1827.79
 30
0.000000
  70
    32
  0
VERTEX
  8
0
  5
AC0
 10
3416.29
 20
1827.75
 30
0.000000
  70
    32
  0
VERTEX
  8
0
  5
AC1
 10
3416.29
 20
1827.72
 30
0.000000
  70
    32
  0
VERTEX
  8
0
  5
AC2
 10
3416.30
 20
1827.69
 30
0.000000
  70
    32
  0
VERTEX
  8
0
  5
AC3
 10
3416.30
 20
1827.66
 30
0.000000
  70
    32
  0
VERTEX
  8
0
  5
AC4
 10
3416.31
 20
1827.63
 30
0.000000
  70
    32
  0
VERTEX
  8
0
  5
AC5
 10
3416.31
 20
1827.60
 30
0.000000
  70
    32
  0
VERTEX
  8
0
  5
AC6
 10
3416.32
 20
1827.57
 30
0.000000
  70
    32
  0
VERTEX
  8
0
  5
AC7
 10
3416.32
 20
1827.54
 30
0.000000
  70
    32
  0
VERTEX
  8
0
  5
AC8
 10
3416.32
 20
1827.51
 30
0.000000
  70
    32
  0
VERTEX
  8
0
  5
AC9
 10
3416.33
 20
1827.48
 30
0.000000
  70
    32
  0
VERTEX
  8
0
  5
ACA
 10
3416.33
 20
1827.45
 30
0.000000
  70
    32
  0
VERTEX
  8
0
  5
ACB
 10
3416.34
 20
1827.41
 30
0.000000
  70
    32
  0
VERTEX
  8
0
  5
ACC
 10
3416.34
 20
1827.38
 30
0.000000
  70
    32
  0
VERTEX
  8
0
  5
ACD
 10
3416.35
 20
1827.35
 30
0.000000
  70
    32
  0
VERTEX
  8
0
  5
ACE
 10
3416.35
 20
1827.32
 30
0.000000
  70
    32
  0
VERTEX
  8
0
  5
ACF
 10
3416.35
 20
1827.29
 30
0.000000
  70
    32
  0
VERTEX
  8
0
  5
AD0
 10
3416.36
 20
1827.26
 30
0.000000
  70
    32
  0
VERTEX
  8
0
  5
AD1
 10
3416.36
 20
1827.23
 30
0.000000
  70
    32
  0
VERTEX
  8
0
  5
AD2
 10
3416.37
 20
1827.20
 30
0.000000
  70
    32
  0
VERTEX
  8
0
  5
AD3
 10
3416.37
 20
1827.17
 30
0.000000
  70
    32
  0
VERTEX
  8
0
  5
AD4
 10
3416.38
 20
1827.14
 30
0.000000
  70
    32
  0
VERTEX
  8
0
  5
AD5
 10
3416.38
 20
1827.11
 30
0.000000
  70
    32
  0
VERTEX
  8
0
  5
AD6
 10
3416.39
 20
1827.08
 30
0.000000
  70
    32
  0
VERTEX
  8
0
  5
AD7
 10
3416.39
 20
1827.05
 30
0.000000
  70
    32
  0
VERTEX
  8
0
  5
AD8
 10
3416.40
 20
1827.01
 30
0.000000
  70
    32
  0
VERTEX
  8
0
  5
AD9
 10
3416.40
 20
1826.98
 30
0.000000
  70
    32
  0
VERTEX
  8
0
  5
ADA
 10
3416.40
 20
1826.95
 30
0.000000
  70
    32
  0
VERTEX
  8
0
  5
ADB
 10
3416.41
 20
1826.92
 30
0.000000
  70
    32
  0
VERTEX
  8
0
  5
ADC
 10
3416.41
 20
1826.89
 30
0.000000
  70
    32
  0
VERTEX
  8
0
  5
ADD
 10
3416.42
 20
1826.86
 30
0.000000
  70
    32
  0
VERTEX
  8
0
  5
ADE
 10
3416.42
 20
1826.83
 30
0.000000
  70
    32
  0
VERTEX
  8
0
  5
ADF
 10
3416.43
 20
1826.80
 30
0.000000
  70
    32
  0
VERTEX
  8
0
  5
AE0
 10
3416.43
 20
1826.77
 30
0.000000
  70
    32
  0
VERTEX
  8
0
  5
AE1
 10
3416.44
 20
1826.74
 30
0.000000
  70
    32
  0
VERTEX
  8
0
  5
AE2
 10
3416.44
 20
1826.71
 30
0.000000
  70
    32
  0
VERTEX
  8
0
  5
AE3
 10
3416.45
 20
1826.68
 30
0.000000
  70
    32
  0
VERTEX
  8
0
  5
AE4
 10
3416.45
 20
1826.64
 30
0.000000
  70
    32
  0
VERTEX
  8
0
  5
AE5
 10
3416.46
 20
1826.61
 30
0.000000
  70
    32
  0
VERTEX
  8
0
  5
AE6
 10
3416.46
 20
1826.58
 30
0.000000
  70
    32
  0
VERTEX
  8
0
  5
AE7
 10
3416.47
 20
1826.55
 30
0.000000
  70
    32
  0
VERTEX
  8
0
  5
AE8
 10
3416.47
 20
1826.52
 30
0.000000
  70
    32
  0
VERTEX
  8
0
  5
AE9
 10
3416.48
 20
1826.49
 30
0.000000
  70
    32
  0
VERTEX
  8
0
  5
AEA
 10
3416.48
 20
1826.46
 30
0.000000
  70
    32
  0
VERTEX
  8
0
  5
AEB
 10
3416.49
 20
1826.43
 30
0.000000
  70
    32
  0
VERTEX
  8
0
  5
AEC
 10
3416.49
 20
1826.40
 30
0.000000
  70
    32
  0
VERTEX
  8
0
  5
AED
 10
3416.50
 20
1826.37
 30
0.000000
  70
    32
  0
VERTEX
  8
0
  5
AEE
 10
3416.50
 20
1826.34
 30
0.000000
  70
    32
  0
VERTEX
  8
0
  5
AEF
 10
3416.51
 20
1826.31
 30
0.000000
  70
    32
  0
VERTEX
  8
0
  5
AF0
 10
3416.51
 20
1826.28
 30
0.000000
  70
    32
  0
VERTEX
  8
0
  5
AF1
 10
3416.52
 20
1826.25
 30
0.000000
  70
    32
  0
VERTEX
  8
0
  5
AF2
 10
3416.52
 20
1826.21
 30
0.000000
  70
    32
  0
VERTEX
  8
0
  5
AF3
 10
3416.53
 20
1826.18
 30
0.000000
  70
    32
  0
VERTEX
  8
0
  5
AF4
 10
3416.53
 20
1826.15
 30
0.000000
  70
    32
  0
VERTEX
  8
0
  5
AF5
 10
3416.54
 20
1826.12
 30
0.000000
  70
    32
  0
VERTEX
  8
0
  5
AF6
 10
3416.54
 20
1826.09
 30
0.000000
  70
    32
  0
VERTEX
  8
0
  5
AF7
 10
3416.55
 20
1826.06
 30
0.000000
  70
    32
  0
VERTEX
  8
0
  5
AF8
 10
3416.55
 20
1826.03
 30
0.000000
  70
    32
  0
VERTEX
  8
0
  5
AF9
 10
3416.56
 20
1826.00
 30
0.000000
  70
    32
  0
VERTEX
  8
0
  5
AFA
 10
3416.57
 20
1825.97
 30
0.000000
  70
    32
  0
VERTEX
  8
0
  5
AFB
 10
3416.57
 20
1825.94
 30
0.000000
  70
    32
  0
VERTEX
  8
0
  5
AFC
 10
3416.58
 20
1825.91
 30
0.000000
  70
    32
  0
VERTEX
  8
0
  5
AFD
 10
3416.58
 20
1825.88
 30
0.000000
  70
    32
  0
VERTEX
  8
0
  5
AFE
 10
3416.59
 20
1825.85
 30
0.000000
  70
    32
  0
VERTEX
  8
0
  5
AFF
 10
3416.59
 20
1825.82
 30
0.000000
  70
    32
  0
VERTEX
  8
0
  5
B00
 10
3416.60
 20
1825.79
 30
0.000000
  70
    32
  0
VERTEX
  8
0
  5
B01
 10
3416.60
 20
1825.75
 30
0.000000
  70
    32
  0
VERTEX
  8
0
  5
B02
 10
3416.61
 20
1825.72
 30
0.000000
  70
    32
  0
VERTEX
  8
0
  5
B03
 10
3416.62
 20
1825.69
 30
0.000000
  70
    32
  0
VERTEX
  8
0
  5
B04
 10
3416.62
 20
1825.66
 30
0.000000
  70
    32
  0
VERTEX
  8
0
  5
B05
 10
3416.63
 20
1825.63
 30
0.000000
  70
    32
  0
VERTEX
  8
0
  5
B06
 10
3416.63
 20
1825.60
 30
0.000000
  70
    32
  0
VERTEX
  8
0
  5
B07
 10
3416.64
 20
1825.57
 30
0.000000
  70
    32
  0
VERTEX
  8
0
  5
B08
 10
3416.64
 20
1825.54
 30
0.000000
  70
    32
  0
VERTEX
  8
0
  5
B09
 10
3416.65
 20
1825.51
 30
0.000000
  70
    32
  0
VERTEX
  8
0
  5
B0A
 10
3416.66
 20
1825.48
 30
0.000000
  70
    32
  0
VERTEX
  8
0
  5
B0B
 10
3416.66
 20
1825.45
 30
0.000000
  70
    32
  0
VERTEX
  8
0
  5
B0C
 10
3416.67
 20
1825.42
 30
0.000000
  70
    32
  0
VERTEX
  8
0
  5
B0D
 10
3416.67
 20
1825.39
 30
0.000000
  70
    32
  0
VERTEX
  8
0
  5
B0E
 10
3416.68
 20
1825.36
 30
0.000000
  70
    32
  0
VERTEX
  8
0
  5
B0F
 10
3416.69
 20
1825.33
 30
0.000000
  70
    32
  0
VERTEX
  8
0
  5
B10
 10
3416.69
 20
1825.30
 30
0.000000
  70
    32
  0
VERTEX
  8
0
  5
B11
 10
3416.70
 20
1825.27
 30
0.000000
  70
    32
  0
VERTEX
  8
0
  5
B12
 10
3416.70
 20
1825.23
 30
0.000000
  70
    32
  0
VERTEX
  8
0
  5
B13
 10
3416.71
 20
1825.20
 30
0.000000
  70
    32
  0
VERTEX
  8
0
  5
B14
 10
3416.72
 20
1825.17
 30
0.000000
  70
    32
  0
VERTEX
  8
0
  5
B15
 10
3416.72
 20
1825.14
 30
0.000000
  70
    32
  0
VERTEX
  8
0
  5
B16
 10
3416.73
 20
1825.11
 30
0.000000
  70
    32
  0
VERTEX
  8
0
  5
B17
 10
3416.74
 20
1825.08
 30
0.000000
  70
    32
  0
VERTEX
  8
0
  5
B18
 10
3416.74
 20
1825.05
 30
0.000000
  70
    32
  0
VERTEX
  8
0
  5
B19
 10
3416.75
 20
1825.02
 30
0.000000
  70
    32
  0
VERTEX
  8
0
  5
B1A
 10
3416.76
 20
1824.99
 30
0.000000
  70
    32
  0
VERTEX
  8
0
  5
B1B
 10
3416.76
 20
1824.96
 30
0.000000
  70
    32
  0
VERTEX
  8
0
  5
B1C
 10
3416.77
 20
1824.93
 30
0.000000
  70
    32
  0
VERTEX
  8
0
  5
B1D
 10
3416.78
 20
1824.90
 30
0.000000
  70
    32
  0
VERTEX
  8
0
  5
B1E
 10
3416.78
 20
1824.87
 30
0.000000
  70
    32
  0
VERTEX
  8
0
  5
B1F
 10
3416.79
 20
1824.84
 30
0.000000
  70
    32
  0
VERTEX
  8
0
  5
B20
 10
3416.80
 20
1824.81
 30
0.000000
  70
    32
  0
VERTEX
  8
0
  5
B21
 10
3416.80
 20
1824.78
 30
0.000000
  70
    32
  0
VERTEX
  8
0
  5
B22
 10
3416.81
 20
1824.75
 30
0.000000
  70
    32
  0
VERTEX
  8
0
  5
B23
 10
3416.82
 20
1824.72
 30
0.000000
  70
    32
  0
VERTEX
  8
0
  5
B24
 10
3416.82
 20
1824.69
 30
0.000000
  70
    32
  0
VERTEX
  8
0
  5
B25
 10
3416.83
 20
1824.66
 30
0.000000
  70
    32
  0
VERTEX
  8
0
  5
B26
 10
3416.84
 20
1824.63
 30
0.000000
  70
    32
  0
VERTEX
  8
0
  5
B27
 10
3416.85
 20
1824.60
 30
0.000000
  70
    32
  0
VERTEX
  8
0
  5
B28
 10
3416.85
 20
1824.57
 30
0.000000
  70
    32
  0
VERTEX
  8
0
  5
B29
 10
3416.86
 20
1824.54
 30
0.000000
  70
    32
  0
VERTEX
  8
0
  5
B2A
 10
3416.87
 20
1824.51
 30
0.000000
  70
    32
  0
VERTEX
  8
0
  5
B2B
 10
3416.88
 20
1824.48
 30
0.000000
  70
    32
  0
VERTEX
  8
0
  5
B2C
 10
3416.88
 20
1824.44
 30
0.000000
  70
    32
  0
VERTEX
  8
0
  5
B2D
 10
3416.89
 20
1824.41
 30
0.000000
  70
    32
  0
VERTEX
  8
0
  5
B2E
 10
3416.90
 20
1824.38
 30
0.000000
  70
    32
  0
VERTEX
  8
0
  5
B2F
 10
3416.91
 20
1824.35
 30
0.000000
  70
    32
  0
VERTEX
  8
0
  5
B30
 10
3416.91
 20
1824.32
 30
0.000000
  70
    32
  0
VERTEX
  8
0
  5
B31
 10
3416.92
 20
1824.29
 30
0.000000
  70
    32
  0
VERTEX
  8
0
  5
B32
 10
3416.93
 20
1824.26
 30
0.000000
  70
    32
  0
VERTEX
  8
0
  5
B33
 10
3416.94
 20
1824.23
 30
0.000000
  70
    32
  0
VERTEX
  8
0
  5
B34
 10
3416.95
 20
1824.20
 30
0.000000
  70
    32
  0
VERTEX
  8
0
  5
B35
 10
3416.95
 20
1824.17
 30
0.000000
  70
    32
  0
VERTEX
  8
0
  5
B36
 10
3416.96
 20
1824.14
 30
0.000000
  70
    32
  0
VERTEX
  8
0
  5
B37
 10
3416.97
 20
1824.11
 30
0.000000
  70
    32
  0
VERTEX
  8
0
  5
B38
 10
3416.98
 20
1824.08
 30
0.000000
  70
    32
  0
VERTEX
  8
0
  5
B39
 10
3416.99
 20
1824.05
 30
0.000000
  70
    32
  0
VERTEX
  8
0
  5
B3A
 10
3417.00
 20
1824.02
 30
0.000000
  70
    32
  0
VERTEX
  8
0
  5
B3B
 10
3417.00
 20
1823.99
 30
0.000000
  70
    32
  0
VERTEX
  8
0
  5
B3C
 10
3417.01
 20
1823.96
 30
0.000000
  70
    32
  0
VERTEX
  8
0
  5
B3D
 10
3417.02
 20
1823.93
 30
0.000000
  70
    32
  0
VERTEX
  8
0
  5
B3E
 10
3417.03
 20
1823.90
 30
0.000000
  70
    32
  0
VERTEX
  8
0
  5
B3F
 10
3417.04
 20
1823.87
 30
0.000000
  70
    32
  0
VERTEX
  8
0
  5
B40
 10
3417.05
 20
1823.85
 30
0.000000
  70
    32
  0
VERTEX
  8
0
  5
B41
 10
3417.06
 20
1823.82
 30
0.000000
  70
    32
  0
VERTEX
  8
0
  5
B42
 10
3417.07
 20
1823.79
 30
0.000000
  70
    32
  0
VERTEX
  8
0
  5
B43
 10
3417.08
 20
1823.76
 30
0.000000
  70
    32
  0
VERTEX
  8
0
  5
B44
 10
3417.09
 20
1823.73
 30
0.000000
  70
    32
  0
VERTEX
  8
0
  5
B45
 10
3417.10
 20
1823.70
 30
0.000000
  70
    32
  0
VERTEX
  8
0
  5
B46
 10
3417.11
 20
1823.67
 30
0.000000
  70
    32
  0
VERTEX
  8
0
  5
B47
 10
3417.12
 20
1823.64
 30
0.000000
  70
    32
  0
VERTEX
  8
0
  5
B48
 10
3417.13
 20
1823.61
 30
0.000000
  70
    32
  0
VERTEX
  8
0
  5
B49
 10
3417.14
 20
1823.58
 30
0.000000
  70
    32
  0
VERTEX
  8
0
  5
B4A
 10
3417.15
 20
1823.55
 30
0.000000
  70
    32
  0
VERTEX
  8
0
  5
B4B
 10
3417.16
 20
1823.52
 30
0.000000
  70
    32
  0
VERTEX
  8
0
  5
B4C
 10
3417.17
 20
1823.49
 30
0.000000
  70
    32
  0
VERTEX
  8
0
  5
B4D
 10
3417.18
 20
1823.46
 30
0.000000
  70
    32
  0
VERTEX
  8
0
  5
B4E
 10
3417.19
 20
1823.43
 30
0.000000
  70
    32
  0
VERTEX
  8
0
  5
B4F
 10
3417.20
 20
1823.40
 30
0.000000
  70
    32
  0
VERTEX
  8
0
  5
B50
 10
3417.22
 20
1823.38
 30
0.000000
  70
    32
  0
VERTEX
  8
0
  5
B51
 10
3417.23
 20
1823.35
 30
0.000000
  70
    32
  0
VERTEX
  8
0
  5
B52
 10
3417.24
 20
1823.32
 30
0.000000
  70
    32
  0
VERTEX
  8
0
  5
B53
 10
3417.25
 20
1823.29
 30
0.000000
  70
    32
  0
VERTEX
  8
0
  5
B54
 10
3417.27
 20
1823.26
 30
0.000000
  70
    32
  0
VERTEX
  8
0
  5
B55
 10
3417.28
 20
1823.23
 30
0.000000
  70
    32
  0
VERTEX
  8
0
  5
B56
 10
3417.29
 20
1823.20
 30
0.000000
  70
    32
  0
VERTEX
  8
0
  5
B57
 10
3417.31
 20
1823.18
 30
0.000000
  70
    32
  0
VERTEX
  8
0
  5
B58
 10
3417.32
 20
1823.15
 30
0.000000
  70
    32
  0
VERTEX
  8
0
  5
B59
 10
3417.33
 20
1823.12
 30
0.000000
  70
    32
  0
VERTEX
  8
0
  5
B5A
 10
3417.35
 20
1823.09
 30
0.000000
  70
    32
  0
VERTEX
  8
0
  5
B5B
 10
3417.36
 20
1823.07
 30
0.000000
  70
    32
  0
VERTEX
  8
0
  5
B5C
 10
3417.38
 20
1823.04
 30
0.000000
  70
    32
  0
VERTEX
  8
0
  5
B5D
 10
3417.39
 20
1823.01
 30
0.000000
  70
    32
  0
VERTEX
  8
0
  5
B5E
 10
3417.41
 20
1822.98
 30
0.000000
  70
    32
  0
VERTEX
  8
0
  5
B5F
 10
3417.42
 20
1822.96
 30
0.000000
  70
    32
  0
VERTEX
  8
0
  5
B60
 10
3417.44
 20
1822.93
 30
0.000000
  70
    32
  0
VERTEX
  8
0
  5
B61
 10
3417.46
 20
1822.91
 30
0.000000
  70
    32
  0
VERTEX
  8
0
  5
B62
 10
3417.48
 20
1822.88
 30
0.000000
  70
    32
  0
VERTEX
  8
0
  5
B63
 10
3417.50
 20
1822.86
 30
0.000000
  70
    32
  0
VERTEX
  8
0
  5
B64
 10
3417.52
 20
1822.83
 30
0.000000
  70
    32
  0
VERTEX
  8
0
  5
B65
 10
3417.54
 20
1822.81
 30
0.000000
  70
    32
  0
VERTEX
  8
0
  5
B66
 10
3417.56
 20
1822.79
 30
0.000000
  70
    32
  0
VERTEX
  8
0
  5
B67
 10
3417.58
 20
1822.77
 30
0.000000
  70
    32
  0
VERTEX
  8
0
  5
B68
 10
3417.61
 20
1822.75
 30
0.000000
  70
    32
  0
VERTEX
  8
0
  5
B69
 10
3417.63
 20
1822.73
 30
0.000000
  70
    32
  0
VERTEX
  8
0
  5
B6A
 10
3417.66
 20
1822.71
 30
0.000000
  70
    32
  0
VERTEX
  8
0
  5
B6B
 10
3417.69
 20
1822.69
 30
0.000000
  70
    32
  0
VERTEX
  8
0
  5
B6C
 10
3417.72
 20
1822.68
 30
0.000000
  70
    32
  0
VERTEX
  8
0
  5
B6D
 10
3417.75
 20
1822.67
 30
0.000000
  70
    32
  0
VERTEX
  8
0
  5
B6E
 10
3417.78
 20
1822.67
 30
0.000000
  70
    32
  0
SEQEND
  8
0
  5
B6F
  0
POLYLINE
  8
0
  5
B70
  66
     1
 10
0.000000
 20
0.000000
 30
0.000000
  70
     8
  0
VERTEX
  8
0
  5
B71
 10
3414.07
 20
1848.15
 30
0.000000
  70
    32
  0
VERTEX
  8
0
  5
B72
 10
3414.07
 20
1848.14
 30
0.000000
  70
    32
  0
VERTEX
  8
0
  5
B73
 10
3414.07
 20
1848.12
 30
0.000000
  70
    32
  0
VERTEX
  8
0
  5
B74
 10
3414.07
 20
1848.11
 30
0.000000
  70
    32
  0
VERTEX
  8
0
  5
B75
 10
3414.07
 20
1848.09
 30
0.000000
  70
    32
  0
VERTEX
  8
0
  5
B76
 10
3414.07
 20
1848.08
 30
0.000000
  70
    32
  0
VERTEX
  8
0
  5
B77
 10
3414.07
 20
1848.06
 30
0.000000
  70
    32
  0
VERTEX
  8
0
  5
B78
 10
3414.07
 20
1848.05
 30
0.000000
  70
    32
  0
VERTEX
  8
0
  5
B79
 10
3414.08
 20
1848.04
 30
0.000000
  70
    32
  0
VERTEX
  8
0
  5
B7A
 10
3414.08
 20
1848.02
 30
0.000000
  70
    32
  0
VERTEX
  8
0
  5
B7B
 10
3414.08
 20
1848.01
 30
0.000000
  70
    32
  0
VERTEX
  8
0
  5
B7C
 10
3414.08
 20
1847.99
 30
0.000000
  70
    32
  0
VERTEX
  8
0
  5
B7D
 10
3414.08
 20
1847.98
 30
0.000000
  70
    32
  0
VERTEX
  8
0
  5
B7E
 10
3414.08
 20
1847.96
 30
0.000000
  70
    32
  0
VERTEX
  8
0
  5
B7F
 10
3414.08
 20
1847.95
 30
0.000000
  70
    32
  0
VERTEX
  8
0
  5
B80
 10
3414.08
 20
1847.93
 30
0.000000
  70
    32
  0
VERTEX
  8
0
  5
B81
 10
3414.08
 20
1847.92
 30
0.000000
  70
    32
  0
VERTEX
  8
0
  5
B82
 10
3414.08
 20
1847.91
 30
0.000000
  70
    32
  0
VERTEX
  8
0
  5
B83
 10
3414.08
 20
1847.89
 30
0.000000
  70
    32
  0
VERTEX
  8
0
  5
B84
 10
3414.08
 20
1847.88
 30
0.000000
  70
    32
  0
VERTEX
  8
0
  5
B85
 10
3414.08
 20
1847.86
 30
0.000000
  70
    32
  0
VERTEX
  8
0
  5
B86
 10
3414.08
 20
1847.85
 30
0.000000
  70
    32
  0
VERTEX
  8
0
  5
B87
 10
3414.08
 20
1847.83
 30
0.000000
  70
    32
  0
VERTEX
  8
0
  5
B88
 10
3414.08
 20
1847.82
 30
0.000000
  70
    32
  0
VERTEX
  8
0
  5
B89
 10
3414.08
 20
1847.80
 30
0.000000
  70
    32
  0
VERTEX
  8
0
  5
B8A
 10
3414.08
 20
1847.79
 30
0.000000
  70
    32
  0
VERTEX
  8
0
  5
B8B
 10
3414.08
 20
1847.78
 30
0.000000
  70
    32
  0
VERTEX
  8
0
  5
B8C
 10
3414.08
 20
1847.76
 30
0.000000
  70
    32
  0
VERTEX
  8
0
  5
B8D
 10
3414.08
 20
1847.75
 30
0.000000
  70
    32
  0
VERTEX
  8
0
  5
B8E
 10
3414.08
 20
1847.73
 30
0.000000
  70
    32
  0
VERTEX
  8
0
  5
B8F
 10
3414.08
 20
1847.72
 30
0.000000
  70
    32
  0
VERTEX
  8
0
  5
B90
 10
3414.08
 20
1847.70
 30
0.000000
  70
    32
  0
VERTEX
  8
0
  5
B91
 10
3414.08
 20
1847.69
 30
0.000000
  70
    32
  0
VERTEX
  8
0
  5
B92
 10
3414.08
 20
1847.68
 30
0.000000
  70
    32
  0
VERTEX
  8
0
  5
B93
 10
3414.08
 20
1847.66
 30
0.000000
  70
    32
  0
VERTEX
  8
0
  5
B94
 10
3414.08
 20
1847.65
 30
0.000000
  70
    32
  0
VERTEX
  8
0
  5
B95
 10
3414.08
 20
1847.63
 30
0.000000
  70
    32
  0
VERTEX
  8
0
  5
B96
 10
3414.08
 20
1847.62
 30
0.000000
  70
    32
  0
VERTEX
  8
0
  5
B97
 10
3414.08
 20
1847.60
 30
0.000000
  70
    32
  0
VERTEX
  8
0
  5
B98
 10
3414.08
 20
1847.59
 30
0.000000
  70
    32
  0
VERTEX
  8
0
  5
B99
 10
3414.08
 20
1847.57
 30
0.000000
  70
    32
  0
VERTEX
  8
0
  5
B9A
 10
3414.08
 20
1847.56
 30
0.000000
  70
    32
  0
VERTEX
  8
0
  5
B9B
 10
3414.08
 20
1847.55
 30
0.000000
  70
    32
  0
VERTEX
  8
0
  5
B9C
 10
3414.08
 20
1847.53
 30
0.000000
  70
    32
  0
VERTEX
  8
0
  5
B9D
 10
3414.08
 20
1847.52
 30
0.000000
  70
    32
  0
VERTEX
  8
0
  5
B9E
 10
3414.09
 20
1847.50
 30
0.000000
  70
    32
  0
VERTEX
  8
0
  5
B9F
 10
3414.09
 20
1847.49
 30
0.000000
  70
    32
  0
VERTEX
  8
0
  5
BA0
 10
3414.09
 20
1847.47
 30
0.000000
  70
    32
  0
VERTEX
  8
0
  5
BA1
 10
3414.09
 20
1847.46
 30
0.000000
  70
    32
  0
VERTEX
  8
0
  5
BA2
 10
3414.09
 20
1847.44
 30
0.000000
  70
    32
  0
VERTEX
  8
0
  5
BA3
 10
3414.09
 20
1847.43
 30
0.000000
  70
    32
  0
VERTEX
  8
0
  5
BA4
 10
3414.09
 20
1847.42
 30
0.000000
  70
    32
  0
VERTEX
  8
0
  5
BA5
 10
3414.09
 20
1847.40
 30
0.000000
  70
    32
  0
VERTEX
  8
0
  5
BA6
 10
3414.09
 20
1847.39
 30
0.000000
  70
    32
  0
VERTEX
  8
0
  5
BA7
 10
3414.09
 20
1847.37
 30
0.000000
  70
    32
  0
VERTEX
  8
0
  5
BA8
 10
3414.09
 20
1847.36
 30
0.000000
  70
    32
  0
VERTEX
  8
0
  5
BA9
 10
3414.09
 20
1847.34
 30
0.000000
  70
    32
  0
VERTEX
  8
0
  5
BAA
 10
3414.09
 20
1847.33
 30
0.000000
  70
    32
  0
VERTEX
  8
0
  5
BAB
 10
3414.09
 20
1847.31
 30
0.000000
  70
    32
  0
VERTEX
  8
0
  5
BAC
 10
3414.09
 20
1847.30
 30
0.000000
  70
    32
  0
VERTEX
  8
0
  5
BAD
 10
3414.09
 20
1847.29
 30
0.000000
  70
    32
  0
VERTEX
  8
0
  5
BAE
 10
3414.09
 20
1847.27
 30
0.000000
  70
    32
  0
VERTEX
  8
0
  5
BAF
 10
3414.09
 20
1847.26
 30
0.000000
  70
    32
  0
VERTEX
  8
0
  5
BB0
 10
3414.09
 20
1847.24
 30
0.000000
  70
    32
  0
VERTEX
  8
0
  5
BB1
 10
3414.09
 20
1847.23
 30
0.000000
  70
    32
  0
VERTEX
  8
0
  5
BB2
 10
3414.09
 20
1847.21
 30
0.000000
  70
    32
  0
VERTEX
  8
0
  5
BB3
 10
3414.09
 20
1847.20
 30
0.000000
  70
    32
  0
VERTEX
  8
0
  5
BB4
 10
3414.09
 20
1847.18
 30
0.000000
  70
    32
  0
VERTEX
  8
0
  5
BB5
 10
3414.09
 20
1847.17
 30
0.000000
  70
    32
  0
VERTEX
  8
0
  5
BB6
 10
3414.09
 20
1847.16
 30
0.000000
  70
    32
  0
VERTEX
  8
0
  5
BB7
 10
3414.09
 20
1847.14
 30
0.000000
  70
    32
  0
VERTEX
  8
0
  5
BB8
 10
3414.09
 20
1847.13
 30
0.000000
  70
    32
  0
VERTEX
  8
0
  5
BB9
 10
3414.09
 20
1847.11
 30
0.000000
  70
    32
  0
VERTEX
  8
0
  5
BBA
 10
3414.09
 20
1847.10
 30
0.000000
  70
    32
  0
VERTEX
  8
0
  5
BBB
 10
3414.09
 20
1847.08
 30
0.000000
  70
    32
  0
VERTEX
  8
0
  5
BBC
 10
3414.09
 20
1847.07
 30
0.000000
  70
    32
  0
VERTEX
  8
0
  5
BBD
 10
3414.09
 20
1847.05
 30
0.000000
  70
    32
  0
VERTEX
  8
0
  5
BBE
 10
3414.09
 20
1847.04
 30
0.000000
  70
    32
  0
VERTEX
  8
0
  5
BBF
 10
3414.09
 20
1847.03
 30
0.000000
  70
    32
  0
VERTEX
  8
0
  5
BC0
 10
3414.10
 20
1847.01
 30
0.000000
  70
    32
  0
VERTEX
  8
0
  5
BC1
 10
3414.10
 20
1847.00
 30
0.000000
  70
    32
  0
VERTEX
  8
0
  5
BC2
 10
3414.10
 20
1846.98
 30
0.000000
  70
    32
  0
VERTEX
  8
0
  5
BC3
 10
3414.10
 20
1846.97
 30
0.000000
  70
    32
  0
VERTEX
  8
0
  5
BC4
 10
3414.10
 20
1846.95
 30
0.000000
  70
    32
  0
VERTEX
  8
0
  5
BC5
 10
3414.10
 20
1846.94
 30
0.000000
  70
    32
  0
VERTEX
  8
0
  5
BC6
 10
3414.10
 20
1846.92
 30
0.000000
  70
    32
  0
VERTEX
  8
0
  5
BC7
 10
3414.10
 20
1846.91
 30
0.000000
  70
    32
  0
VERTEX
  8
0
  5
BC8
 10
3414.10
 20
1846.90
 30
0.000000
  70
    32
  0
VERTEX
  8
0
  5
BC9
 10
3414.10
 20
1846.88
 30
0.000000
  70
    32
  0
VERTEX
  8
0
  5
BCA
 10
3414.10
 20
1846.87
 30
0.000000
  70
    32
  0
VERTEX
  8
0
  5
BCB
 10
3414.10
 20
1846.85
 30
0.000000
  70
    32
  0
VERTEX
  8
0
  5
BCC
 10
3414.10
 20
1846.84
 30
0.000000
  70
    32
  0
VERTEX
  8
0
  5
BCD
 10
3414.10
 20
1846.82
 30
0.000000
  70
    32
  0
VERTEX
  8
0
  5
BCE
 10
3414.10
 20
1846.81
 30
0.000000
  70
    32
  0
VERTEX
  8
0
  5
BCF
 10
3414.10
 20
1846.79
 30
0.000000
  70
    32
  0
VERTEX
  8
0
  5
BD0
 10
3414.10
 20
1846.78
 30
0.000000
  70
    32
  0
VERTEX
  8
0
  5
BD1
 10
3414.10
 20
1846.77
 30
0.000000
  70
    32
  0
VERTEX
  8
0
  5
BD2
 10
3414.10
 20
1846.75
 30
0.000000
  70
    32
  0
VERTEX
  8
0
  5
BD3
 10
3414.10
 20
1846.74
 30
0.000000
  70
    32
  0
VERTEX
  8
0
  5
BD4
 10
3414.10
 20
1846.72
 30
0.000000
  70
    32
  0
VERTEX
  8
0
  5
BD5
 10
3414.10
 20
1846.71
 30
0.000000
  70
    32
  0
VERTEX
  8
0
  5
BD6
 10
3414.10
 20
1846.69
 30
0.000000
  70
    32
  0
VERTEX
  8
0
  5
BD7
 10
3414.10
 20
1846.68
 30
0.000000
  70
    32
  0
VERTEX
  8
0
  5
BD8
 10
3414.10
 20
1846.66
 30
0.000000
  70
    32
  0
VERTEX
  8
0
  5
BD9
 10
3414.10
 20
1846.65
 30
0.000000
  70
    32
  0
VERTEX
  8
0
  5
BDA
 10
3414.10
 20
1846.64
 30
0.000000
  70
    32
  0
VERTEX
  8
0
  5
BDB
 10
3414.10
 20
1846.62
 30
0.000000
  70
    32
  0
VERTEX
  8
0
  5
BDC
 10
3414.10
 20
1846.61
 30
0.000000
  70
    32
  0
VERTEX
  8
0
  5
BDD
 10
3414.10
 20
1846.59
 30
0.000000
  70
    32
  0
VERTEX
  8
0
  5
BDE
 10
3414.10
 20
1846.58
 30
0.000000
  70
    32
  0
VERTEX
  8
0
  5
BDF
 10
3414.10
 20
1846.56
 30
0.000000
  70
    32
  0
VERTEX
  8
0
  5
BE0
 10
3414.11
 20
1846.55
 30
0.000000
  70
    32
  0
VERTEX
  8
0
  5
BE1
 10
3414.11
 20
1846.53
 30
0.000000
  70
    32
  0
VERTEX
  8
0
  5
BE2
 10
3414.11
 20
1846.52
 30
0.000000
  70
    32
  0
VERTEX
  8
0
  5
BE3
 10
3414.11
 20
1846.51
 30
0.000000
  70
    32
  0
VERTEX
  8
0
  5
BE4
 10
3414.11
 20
1846.49
 30
0.000000
  70
    32
  0
VERTEX
  8
0
  5
BE5
 10
3414.11
 20
1846.48
 30
0.000000
  70
    32
  0
VERTEX
  8
0
  5
BE6
 10
3414.11
 20
1846.46
 30
0.000000
  70
    32
  0
VERTEX
  8
0
  5
BE7
 10
3414.11
 20
1846.45
 30
0.000000
  70
    32
  0
VERTEX
  8
0
  5
BE8
 10
3414.11
 20
1846.43
 30
0.000000
  70
    32
  0
VERTEX
  8
0
  5
BE9
 10
3414.11
 20
1846.42
 30
0.000000
  70
    32
  0
VERTEX
  8
0
  5
BEA
 10
3414.11
 20
1846.41
 30
0.000000
  70
    32
  0
VERTEX
  8
0
  5
BEB
 10
3414.11
 20
1846.39
 30
0.000000
  70
    32
  0
VERTEX
  8
0
  5
BEC
 10
3414.11
 20
1846.38
 30
0.000000
  70
    32
  0
VERTEX
  8
0
  5
BED
 10
3414.11
 20
1846.36
 30
0.000000
  70
    32
  0
VERTEX
  8
0
  5
BEE
 10
3414.11
 20
1846.35
 30
0.000000
  70
    32
  0
VERTEX
  8
0
  5
BEF
 10
3414.11
 20
1846.33
 30
0.000000
  70
    32
  0
VERTEX
  8
0
  5
BF0
 10
3414.11
 20
1846.32
 30
0.000000
  70
    32
  0
VERTEX
  8
0
  5
BF1
 10
3414.11
 20
1846.30
 30
0.000000
  70
    32
  0
VERTEX
  8
0
  5
BF2
 10
3414.11
 20
1846.29
 30
0.000000
  70
    32
  0
VERTEX
  8
0
  5
BF3
 10
3414.11
 20
1846.28
 30
0.000000
  70
    32
  0
VERTEX
  8
0
  5
BF4
 10
3414.11
 20
1846.26
 30
0.000000
  70
    32
  0
VERTEX
  8
0
  5
BF5
 10
3414.11
 20
1846.25
 30
0.000000
  70
    32
  0
VERTEX
  8
0
  5
BF6
 10
3414.11
 20
1846.23
 30
0.000000
  70
    32
  0
VERTEX
  8
0
  5
BF7
 10
3414.11
 20
1846.22
 30
0.000000
  70
    32
  0
VERTEX
  8
0
  5
BF8
 10
3414.11
 20
1846.20
 30
0.000000
  70
    32
  0
VERTEX
  8
0
  5
BF9
 10
3414.11
 20
1846.19
 30
0.000000
  70
    32
  0
VERTEX
  8
0
  5
BFA
 10
3414.11
 20
1846.17
 30
0.000000
  70
    32
  0
VERTEX
  8
0
  5
BFB
 10
3414.11
 20
1846.16
 30
0.000000
  70
    32
  0
VERTEX
  8
0
  5
BFC
 10
3414.11
 20
1846.15
 30
0.000000
  70
    32
  0
VERTEX
  8
0
  5
BFD
 10
3414.11
 20
1846.13
 30
0.000000
  70
    32
  0
VERTEX
  8
0
  5
BFE
 10
3414.12
 20
1846.12
 30
0.000000
  70
    32
  0
VERTEX
  8
0
  5
BFF
 10
3414.12
 20
1846.10
 30
0.000000
  70
    32
  0
VERTEX
  8
0
  5
C00
 10
3414.12
 20
1846.09
 30
0.000000
  70
    32
  0
VERTEX
  8
0
  5
C01
 10
3414.12
 20
1846.07
 30
0.000000
  70
    32
  0
VERTEX
  8
0
  5
C02
 10
3414.12
 20
1846.06
 30
0.000000
  70
    32
  0
VERTEX
  8
0
  5
C03
 10
3414.12
 20
1846.04
 30
0.000000
  70
    32
  0
VERTEX
  8
0
  5
C04
 10
3414.12
 20
1846.03
 30
0.000000
  70
    32
  0
VERTEX
  8
0
  5
C05
 10
3414.12
 20
1846.02
 30
0.000000
  70
    32
  0
VERTEX
  8
0
  5
C06
 10
3414.12
 20
1846.00
 30
0.000000
  70
    32
  0
VERTEX
  8
0
  5
C07
 10
3414.12
 20
1845.99
 30
0.000000
  70
    32
  0
VERTEX
  8
0
  5
C08
 10
3414.12
 20
1845.97
 30
0.000000
  70
    32
  0
VERTEX
  8
0
  5
C09
 10
3414.12
 20
1845.96
 30
0.000000
  70
    32
  0
VERTEX
  8
0
  5
C0A
 10
3414.12
 20
1845.94
 30
0.000000
  70
    32
  0
VERTEX
  8
0
  5
C0B
 10
3414.12
 20
1845.93
 30
0.000000
  70
    32
  0
VERTEX
  8
0
  5
C0C
 10
3414.12
 20
1845.91
 30
0.000000
  70
    32
  0
VERTEX
  8
0
  5
C0D
 10
3414.12
 20
1845.90
 30
0.000000
  70
    32
  0
VERTEX
  8
0
  5
C0E
 10
3414.12
 20
1845.89
 30
0.000000
  70
    32
  0
VERTEX
  8
0
  5
C0F
 10
3414.12
 20
1845.87
 30
0.000000
  70
    32
  0
VERTEX
  8
0
  5
C10
 10
3414.12
 20
1845.86
 30
0.000000
  70
    32
  0
VERTEX
  8
0
  5
C11
 10
3414.12
 20
1845.84
 30
0.000000
  70
    32
  0
VERTEX
  8
0
  5
C12
 10
3414.12
 20
1845.83
 30
0.000000
  70
    32
  0
VERTEX
  8
0
  5
C13
 10
3414.12
 20
1845.81
 30
0.000000
  70
    32
  0
VERTEX
  8
0
  5
C14
 10
3414.12
 20
1845.80
 30
0.000000
  70
    32
  0
VERTEX
  8
0
  5
C15
 10
3414.12
 20
1845.78
 30
0.000000
  70
    32
  0
VERTEX
  8
0
  5
C16
 10
3414.12
 20
1845.77
 30
0.000000
  70
    32
  0
VERTEX
  8
0
  5
C17
 10
3414.12
 20
1845.76
 30
0.000000
  70
    32
  0
VERTEX
  8
0
  5
C18
 10
3414.12
 20
1845.74
 30
0.000000
  70
    32
  0
VERTEX
  8
0
  5
C19
 10
3414.12
 20
1845.73
 30
0.000000
  70
    32
  0
VERTEX
  8
0
  5
C1A
 10
3414.13
 20
1845.71
 30
0.000000
  70
    32
  0
VERTEX
  8
0
  5
C1B
 10
3414.13
 20
1845.70
 30
0.000000
  70
    32
  0
VERTEX
  8
0
  5
C1C
 10
3414.13
 20
1845.68
 30
0.000000
  70
    32
  0
VERTEX
  8
0
  5
C1D
 10
3414.13
 20
1845.67
 30
0.000000
  70
    32
  0
VERTEX
  8
0
  5
C1E
 10
3414.13
 20
1845.65
 30
0.000000
  70
    32
  0
VERTEX
  8
0
  5
C1F
 10
3414.13
 20
1845.64
 30
0.000000
  70
    32
  0
VERTEX
  8
0
  5
C20
 10
3414.13
 20
1845.63
 30
0.000000
  70
    32
  0
VERTEX
  8
0
  5
C21
 10
3414.13
 20
1845.61
 30
0.000000
  70
    32
  0
VERTEX
  8
0
  5
C22
 10
3414.13
 20
1845.60
 30
0.000000
  70
    32
  0
VERTEX
  8
0
  5
C23
 10
3414.13
 20
1845.58
 30
0.000000
  70
    32
  0
VERTEX
  8
0
  5
C24
 10
3414.13
 20
1845.57
 30
0.000000
  70
    32
  0
VERTEX
  8
0
  5
C25
 10
3414.13
 20
1845.55
 30
0.000000
  70
    32
  0
VERTEX
  8
0
  5
C26
 10
3414.13
 20
1845.54
 30
0.000000
  70
    32
  0
VERTEX
  8
0
  5
C27
 10
3414.13
 20
1845.52
 30
0.000000
  70
    32
  0
VERTEX
  8
0
  5
C28
 10
3414.13
 20
1845.51
 30
0.000000
  70
    32
  0
VERTEX
  8
0
  5
C29
 10
3414.13
 20
1845.50
 30
0.000000
  70
    32
  0
VERTEX
  8
0
  5
C2A
 10
3414.13
 20
1845.48
 30
0.000000
  70
    32
  0
VERTEX
  8
0
  5
C2B
 10
3414.13
 20
1845.47
 30
0.000000
  70
    32
  0
VERTEX
  8
0
  5
C2C
 10
3414.13
 20
1845.45
 30
0.000000
  70
    32
  0
VERTEX
  8
0
  5
C2D
 10
3414.13
 20
1845.44
 30
0.000000
  70
    32
  0
VERTEX
  8
0
  5
C2E
 10
3414.13
 20
1845.42
 30
0.000000
  70
    32
  0
VERTEX
  8
0
  5
C2F
 10
3414.13
 20
1845.41
 30
0.000000
  70
    32
  0
VERTEX
  8
0
  5
C30
 10
3414.13
 20
1845.39
 30
0.000000
  70
    32
  0
VERTEX
  8
0
  5
C31
 10
3414.13
 20
1845.38
 30
0.000000
  70
    32
  0
VERTEX
  8
0
  5
C32
 10
3414.13
 20
1845.37
 30
0.000000
  70
    32
  0
VERTEX
  8
0
  5
C33
 10
3414.13
 20
1845.35
 30
0.000000
  70
    32
  0
VERTEX
  8
0
  5
C34
 10
3414.13
 20
1845.34
 30
0.000000
  70
    32
  0
VERTEX
  8
0
  5
C35
 10
3414.14
 20
1845.32
 30
0.000000
  70
    32
  0
VERTEX
  8
0
  5
C36
 10
3414.14
 20
1845.31
 30
0.000000
  70
    32
  0
VERTEX
  8
0
  5
C37
 10
3414.14
 20
1845.29
 30
0.000000
  70
    32
  0
VERTEX
  8
0
  5
C38
 10
3414.14
 20
1845.28
 30
0.000000
  70
    32
  0
VERTEX
  8
0
  5
C39
 10
3414.14
 20
1845.26
 30
0.000000
  70
    32
  0
VERTEX
  8
0
  5
C3A
 10
3414.14
 20
1845.25
 30
0.000000
  70
    32
  0
VERTEX
  8
0
  5
C3B
 10
3414.14
 20
1845.24
 30
0.000000
  70
    32
  0
VERTEX
  8
0
  5
C3C
 10
3414.14
 20
1845.22
 30
0.000000
  70
    32
  0
VERTEX
  8
0
  5
C3D
 10
3414.14
 20
1845.21
 30
0.000000
  70
    32
  0
VERTEX
  8
0
  5
C3E
 10
3414.14
 20
1845.19
 30
0.000000
  70
    32
  0
VERTEX
  8
0
  5
C3F
 10
3414.14
 20
1845.18
 30
0.000000
  70
    32
  0
VERTEX
  8
0
  5
C40
 10
3414.14
 20
1845.16
 30
0.000000
  70
    32
  0
VERTEX
  8
0
  5
C41
 10
3414.14
 20
1845.15
 30
0.000000
  70
    32
  0
VERTEX
  8
0
  5
C42
 10
3414.14
 20
1845.13
 30
0.000000
  70
    32
  0
VERTEX
  8
0
  5
C43
 10
3414.14
 20
1845.12
 30
0.000000
  70
    32
  0
VERTEX
  8
0
  5
C44
 10
3414.14
 20
1845.11
 30
0.000000
  70
    32
  0
VERTEX
  8
0
  5
C45
 10
3414.14
 20
1845.09
 30
0.000000
  70
    32
  0
VERTEX
  8
0
  5
C46
 10
3414.14
 20
1845.08
 30
0.000000
  70
    32
  0
VERTEX
  8
0
  5
C47
 10
3414.14
 20
1845.06
 30
0.000000
  70
    32
  0
VERTEX
  8
0
  5
C48
 10
3414.14
 20
1845.05
 30
0.000000
  70
    32
  0
VERTEX
  8
0
  5
C49
 10
3414.14
 20
1845.03
 30
0.000000
  70
    32
  0
VERTEX
  8
0
  5
C4A
 10
3414.14
 20
1845.02
 30
0.000000
  70
    32
  0
VERTEX
  8
0
  5
C4B
 10
3414.14
 20
1845.01
 30
0.000000
  70
    32
  0
VERTEX
  8
0
  5
C4C
 10
3414.14
 20
1844.99
 30
0.000000
  70
    32
  0
VERTEX
  8
0
  5
C4D
 10
3414.14
 20
1844.98
 30
0.000000
  70
    32
  0
VERTEX
  8
0
  5
C4E
 10
3414.14
 20
1844.96
 30
0.000000
  70
    32
  0
VERTEX
  8
0
  5
C4F
 10
3414.15
 20
1844.95
 30
0.000000
  70
    32
  0
VERTEX
  8
0
  5
C50
 10
3414.15
 20
1844.93
 30
0.000000
  70
    32
  0
VERTEX
  8
0
  5
C51
 10
3414.15
 20
1844.92
 30
0.000000
  70
    32
  0
VERTEX
  8
0
  5
C52
 10
3414.15
 20
1844.90
 30
0.000000
  70
    32
  0
VERTEX
  8
0
  5
C53
 10
3414.15
 20
1844.89
 30
0.000000
  70
    32
  0
VERTEX
  8
0
  5
C54
 10
3414.15
 20
1844.88
 30
0.000000
  70
    32
  0
VERTEX
  8
0
  5
C55
 10
3414.15
 20
1844.86
 30
0.000000
  70
    32
  0
VERTEX
  8
0
  5
C56
 10
3414.15
 20
1844.85
 30
0.000000
  70
    32
  0
VERTEX
  8
0
  5
C57
 10
3414.15
 20
1844.83
 30
0.000000
  70
    32
  0
VERTEX
  8
0
  5
C58
 10
3414.15
 20
1844.82
 30
0.000000
  70
    32
  0
VERTEX
  8
0
  5
C59
 10
3414.15
 20
1844.80
 30
0.000000
  70
    32
  0
VERTEX
  8
0
  5
C5A
 10
3414.15
 20
1844.79
 30
0.000000
  70
    32
  0
VERTEX
  8
0
  5
C5B
 10
3414.15
 20
1844.77
 30
0.000000
  70
    32
  0
VERTEX
  8
0
  5
C5C
 10
3414.15
 20
1844.76
 30
0.000000
  70
    32
  0
VERTEX
  8
0
  5
C5D
 10
3414.15
 20
1844.75
 30
0.000000
  70
    32
  0
VERTEX
  8
0
  5
C5E
 10
3414.15
 20
1844.73
 30
0.000000
  70
    32
  0
VERTEX
  8
0
  5
C5F
 10
3414.15
 20
1844.72
 30
0.000000
  70
    32
  0
VERTEX
  8
0
  5
C60
 10
3414.15
 20
1844.70
 30
0.000000
  70
    32
  0
VERTEX
  8
0
  5
C61
 10
3414.15
 20
1844.69
 30
0.000000
  70
    32
  0
VERTEX
  8
0
  5
C62
 10
3414.15
 20
1844.67
 30
0.000000
  70
    32
  0
VERTEX
  8
0
  5
C63
 10
3414.15
 20
1844.66
 30
0.000000
  70
    32
  0
VERTEX
  8
0
  5
C64
 10
3414.15
 20
1844.64
 30
0.000000
  70
    32
  0
VERTEX
  8
0
  5
C65
 10
3414.15
 20
1844.63
 30
0.000000
  70
    32
  0
VERTEX
  8
0
  5
C66
 10
3414.15
 20
1844.62
 30
0.000000
  70
    32
  0
VERTEX
  8
0
  5
C67
 10
3414.15
 20
1844.60
 30
0.000000
  70
    32
  0
VERTEX
  8
0
  5
C68
 10
3414.16
 20
1844.59
 30
0.000000
  70
    32
  0
VERTEX
  8
0
  5
C69
 10
3414.16
 20
1844.57
 30
0.000000
  70
    32
  0
VERTEX
  8
0
  5
C6A
 10
3414.16
 20
1844.56
 30
0.000000
  70
    32
  0
VERTEX
  8
0
  5
C6B
 10
3414.16
 20
1844.54
 30
0.000000
  70
    32
  0
VERTEX
  8
0
  5
C6C
 10
3414.16
 20
1844.53
 30
0.000000
  70
    32
  0
VERTEX
  8
0
  5
C6D
 10
3414.16
 20
1844.51
 30
0.000000
  70
    32
  0
VERTEX
  8
0
  5
C6E
 10
3414.16
 20
1844.50
 30
0.000000
  70
    32
  0
VERTEX
  8
0
  5
C6F
 10
3414.16
 20
1844.49
 30
0.000000
  70
    32
  0
VERTEX
  8
0
  5
C70
 10
3414.16
 20
1844.47
 30
0.000000
  70
    32
  0
VERTEX
  8
0
  5
C71
 10
3414.16
 20
1844.46
 30
0.000000
  70
    32
  0
VERTEX
  8
0
  5
C72
 10
3414.16
 20
1844.44
 30
0.000000
  70
    32
  0
VERTEX
  8
0
  5
C73
 10
3414.16
 20
1844.43
 30
0.000000
  70
    32
  0
VERTEX
  8
0
  5
C74
 10
3414.16
 20
1844.41
 30
0.000000
  70
    32
  0
VERTEX
  8
0
  5
C75
 10
3414.16
 20
1844.40
 30
0.000000
  70
    32
  0
VERTEX
  8
0
  5
C76
 10
3414.16
 20
1844.38
 30
0.000000
  70
    32
  0
VERTEX
  8
0
  5
C77
 10
3414.16
 20
1844.37
 30
0.000000
  70
    32
  0
VERTEX
  8
0
  5
C78
 10
3414.16
 20
1844.36
 30
0.000000
  70
    32
  0
VERTEX
  8
0
  5
C79
 10
3414.16
 20
1844.34
 30
0.000000
  70
    32
  0
VERTEX
  8
0
  5
C7A
 10
3414.16
 20
1844.33
 30
0.000000
  70
    32
  0
VERTEX
  8
0
  5
C7B
 10
3414.16
 20
1844.31
 30
0.000000
  70
    32
  0
VERTEX
  8
0
  5
C7C
 10
3414.16
 20
1844.30
 30
0.000000
  70
    32
  0
VERTEX
  8
0
  5
C7D
 10
3414.16
 20
1844.28
 30
0.000000
  70
    32
  0
VERTEX
  8
0
  5
C7E
 10
3414.16
 20
1844.27
 30
0.000000
  70
    32
  0
VERTEX
  8
0
  5
C7F
 10
3414.16
 20
1844.25
 30
0.000000
  70
    32
  0
VERTEX
  8
0
  5
C80
 10
3414.17
 20
1844.24
 30
0.000000
  70
    32
  0
VERTEX
  8
0
  5
C81
 10
3414.17
 20
1844.23
 30
0.000000
  70
    32
  0
VERTEX
  8
0
  5
C82
 10
3414.17
 20
1844.21
 30
0.000000
  70
    32
  0
VERTEX
  8
0
  5
C83
 10
3414.17
 20
1844.20
 30
0.000000
  70
    32
  0
VERTEX
  8
0
  5
C84
 10
3414.17
 20
1844.18
 30
0.000000
  70
    32
  0
VERTEX
  8
0
  5
C85
 10
3414.17
 20
1844.17
 30
0.000000
  70
    32
  0
VERTEX
  8
0
  5
C86
 10
3414.17
 20
1844.15
 30
0.000000
  70
    32
  0
VERTEX
  8
0
  5
C87
 10
3414.17
 20
1844.14
 30
0.000000
  70
    32
  0
VERTEX
  8
0
  5
C88
 10
3414.17
 20
1844.12
 30
0.000000
  70
    32
  0
VERTEX
  8
0
  5
C89
 10
3414.17
 20
1844.11
 30
0.000000
  70
    32
  0
VERTEX
  8
0
  5
C8A
 10
3414.17
 20
1844.10
 30
0.000000
  70
    32
  0
VERTEX
  8
0
  5
C8B
 10
3414.17
 20
1844.08
 30
0.000000
  70
    32
  0
VERTEX
  8
0
  5
C8C
 10
3414.17
 20
1844.07
 30
0.000000
  70
    32
  0
VERTEX
  8
0
  5
C8D
 10
3414.17
 20
1844.05
 30
0.000000
  70
    32
  0
VERTEX
  8
0
  5
C8E
 10
3414.17
 20
1844.04
 30
0.000000
  70
    32
  0
VERTEX
  8
0
  5
C8F
 10
3414.17
 20
1844.02
 30
0.000000
  70
    32
  0
VERTEX
  8
0
  5
C90
 10
3414.17
 20
1844.01
 30
0.000000
  70
    32
  0
VERTEX
  8
0
  5
C91
 10
3414.17
 20
1843.99
 30
0.000000
  70
    32
  0
VERTEX
  8
0
  5
C92
 10
3414.17
 20
1843.98
 30
0.000000
  70
    32
  0
VERTEX
  8
0
  5
C93
 10
3414.17
 20
1843.97
 30
0.000000
  70
    32
  0
VERTEX
  8
0
  5
C94
 10
3414.17
 20
1843.95
 30
0.000000
  70
    32
  0
VERTEX
  8
0
  5
C95
 10
3414.17
 20
1843.94
 30
0.000000
  70
    32
  0
VERTEX
  8
0
  5
C96
 10
3414.17
 20
1843.92
 30
0.000000
  70
    32
  0
VERTEX
  8
0
  5
C97
 10
3414.18
 20
1843.91
 30
0.000000
  70
    32
  0
VERTEX
  8
0
  5
C98
 10
3414.18
 20
1843.89
 30
0.000000
  70
    32
  0
VERTEX
  8
0
  5
C99
 10
3414.18
 20
1843.88
 30
0.000000
  70
    32
  0
VERTEX
  8
0
  5
C9A
 10
3414.18
 20
1843.86
 30
0.000000
  70
    32
  0
VERTEX
  8
0
  5
C9B
 10
3414.18
 20
1843.85
 30
0.000000
  70
    32
  0
VERTEX
  8
0
  5
C9C
 10
3414.18
 20
1843.84
 30
0.000000
  70
    32
  0
VERTEX
  8
0
  5
C9D
 10
3414.18
 20
1843.82
 30
0.000000
  70
    32
  0
VERTEX
  8
0
  5
C9E
 10
3414.18
 20
1843.81
 30
0.000000
  70
    32
  0
VERTEX
  8
0
  5
C9F
 10
3414.18
 20
1843.79
 30
0.000000
  70
    32
  0
VERTEX
  8
0
  5
CA0
 10
3414.18
 20
1843.78
 30
0.000000
  70
    32
  0
VERTEX
  8
0
  5
CA1
 10
3414.18
 20
1843.76
 30
0.000000
  70
    32
  0
VERTEX
  8
0
  5
CA2
 10
3414.18
 20
1843.75
 30
0.000000
  70
    32
  0
VERTEX
  8
0
  5
CA3
 10
3414.18
 20
1843.74
 30
0.000000
  70
    32
  0
VERTEX
  8
0
  5
CA4
 10
3414.18
 20
1843.72
 30
0.000000
  70
    32
  0
VERTEX
  8
0
  5
CA5
 10
3414.18
 20
1843.71
 30
0.000000
  70
    32
  0
VERTEX
  8
0
  5
CA6
 10
3414.18
 20
1843.69
 30
0.000000
  70
    32
  0
VERTEX
  8
0
  5
CA7
 10
3414.18
 20
1843.68
 30
0.000000
  70
    32
  0
VERTEX
  8
0
  5
CA8
 10
3414.18
 20
1843.66
 30
0.000000
  70
    32
  0
VERTEX
  8
0
  5
CA9
 10
3414.18
 20
1843.65
 30
0.000000
  70
    32
  0
VERTEX
  8
0
  5
CAA
 10
3414.18
 20
1843.63
 30
0.000000
  70
    32
  0
VERTEX
  8
0
  5
CAB
 10
3414.18
 20
1843.62
 30
0.000000
  70
    32
  0
VERTEX
  8
0
  5
CAC
 10
3414.18
 20
1843.61
 30
0.000000
  70
    32
  0
VERTEX
  8
0
  5
CAD
 10
3414.19
 20
1843.59
 30
0.000000
  70
    32
  0
VERTEX
  8
0
  5
CAE
 10
3414.19
 20
1843.58
 30
0.000000
  70
    32
  0
VERTEX
  8
0
  5
CAF
 10
3414.19
 20
1843.56
 30
0.000000
  70
    32
  0
VERTEX
  8
0
  5
CB0
 10
3414.19
 20
1843.55
 30
0.000000
  70
    32
  0
VERTEX
  8
0
  5
CB1
 10
3414.19
 20
1843.53
 30
0.000000
  70
    32
  0
VERTEX
  8
0
  5
CB2
 10
3414.19
 20
1843.52
 30
0.000000
  70
    32
  0
VERTEX
  8
0
  5
CB3
 10
3414.19
 20
1843.50
 30
0.000000
  70
    32
  0
VERTEX
  8
0
  5
CB4
 10
3414.19
 20
1843.49
 30
0.000000
  70
    32
  0
VERTEX
  8
0
  5
CB5
 10
3414.19
 20
1843.48
 30
0.000000
  70
    32
  0
VERTEX
  8
0
  5
CB6
 10
3414.19
 20
1843.46
 30
0.000000
  70
    32
  0
VERTEX
  8
0
  5
CB7
 10
3414.19
 20
1843.45
 30
0.000000
  70
    32
  0
VERTEX
  8
0
  5
CB8
 10
3414.19
 20
1843.43
 30
0.000000
  70
    32
  0
VERTEX
  8
0
  5
CB9
 10
3414.19
 20
1843.42
 30
0.000000
  70
    32
  0
VERTEX
  8
0
  5
CBA
 10
3414.19
 20
1843.40
 30
0.000000
  70
    32
  0
VERTEX
  8
0
  5
CBB
 10
3414.19
 20
1843.39
 30
0.000000
  70
    32
  0
VERTEX
  8
0
  5
CBC
 10
3414.19
 20
1843.37
 30
0.000000
  70
    32
  0
VERTEX
  8
0
  5
CBD
 10
3414.19
 20
1843.36
 30
0.000000
  70
    32
  0
VERTEX
  8
0
  5
CBE
 10
3414.19
 20
1843.35
 30
0.000000
  70
    32
  0
VERTEX
  8
0
  5
CBF
 10
3414.19
 20
1843.33
 30
0.000000
  70
    32
  0
VERTEX
  8
0
  5
CC0
 10
3414.19
 20
1843.32
 30
0.000000
  70
    32
  0
VERTEX
  8
0
  5
CC1
 10
3414.19
 20
1843.30
 30
0.000000
  70
    32
  0
VERTEX
  8
0
  5
CC2
 10
3414.19
 20
1843.29
 30
0.000000
  70
    32
  0
VERTEX
  8
0
  5
CC3
 10
3414.20
 20
1843.27
 30
0.000000
  70
    32
  0
VERTEX
  8
0
  5
CC4
 10
3414.20
 20
1843.26
 30
0.000000
  70
    32
  0
VERTEX
  8
0
  5
CC5
 10
3414.20
 20
1843.24
 30
0.000000
  70
    32
  0
VERTEX
  8
0
  5
CC6
 10
3414.20
 20
1843.23
 30
0.000000
  70
    32
  0
VERTEX
  8
0
  5
CC7
 10
3414.20
 20
1843.22
 30
0.000000
  70
    32
  0
VERTEX
  8
0
  5
CC8
 10
3414.20
 20
1843.20
 30
0.000000
  70
    32
  0
VERTEX
  8
0
  5
CC9
 10
3414.20
 20
1843.19
 30
0.000000
  70
    32
  0
VERTEX
  8
0
  5
CCA
 10
3414.20
 20
1843.17
 30
0.000000
  70
    32
  0
VERTEX
  8
0
  5
CCB
 10
3414.20
 20
1843.16
 30
0.000000
  70
    32
  0
VERTEX
  8
0
  5
CCC
 10
3414.20
 20
1843.14
 30
0.000000
  70
    32
  0
VERTEX
  8
0
  5
CCD
 10
3414.20
 20
1843.13
 30
0.000000
  70
    32
  0
VERTEX
  8
0
  5
CCE
 10
3414.20
 20
1843.11
 30
0.000000
  70
    32
  0
VERTEX
  8
0
  5
CCF
 10
3414.20
 20
1843.10
 30
0.000000
  70
    32
  0
VERTEX
  8
0
  5
CD0
 10
3414.20
 20
1843.09
 30
0.000000
  70
    32
  0
VERTEX
  8
0
  5
CD1
 10
3414.20
 20
1843.07
 30
0.000000
  70
    32
  0
VERTEX
  8
0
  5
CD2
 10
3414.20
 20
1843.06
 30
0.000000
  70
    32
  0
VERTEX
  8
0
  5
CD3
 10
3414.20
 20
1843.04
 30
0.000000
  70
    32
  0
VERTEX
  8
0
  5
CD4
 10
3414.20
 20
1843.03
 30
0.000000
  70
    32
  0
VERTEX
  8
0
  5
CD5
 10
3414.20
 20
1843.01
 30
0.000000
  70
    32
  0
VERTEX
  8
0
  5
CD6
 10
3414.20
 20
1843.00
 30
0.000000
  70
    32
  0
VERTEX
  8
0
  5
CD7
 10
3414.21
 20
1842.98
 30
0.000000
  70
    32
  0
VERTEX
  8
0
  5
CD8
 10
3414.21
 20
1842.97
 30
0.000000
  70
    32
  0
VERTEX
  8
0
  5
CD9
 10
3414.21
 20
1842.96
 30
0.000000
  70
    32
  0
VERTEX
  8
0
  5
CDA
 10
3414.21
 20
1842.94
 30
0.000000
  70
    32
  0
VERTEX
  8
0
  5
CDB
 10
3414.21
 20
1842.93
 30
0.000000
  70
    32
  0
VERTEX
  8
0
  5
CDC
 10
3414.21
 20
1842.91
 30
0.000000
  70
    32
  0
VERTEX
  8
0
  5
CDD
 10
3414.21
 20
1842.90
 30
0.000000
  70
    32
  0
VERTEX
  8
0
  5
CDE
 10
3414.21
 20
1842.88
 30
0.000000
  70
    32
  0
VERTEX
  8
0
  5
CDF
 10
3414.21
 20
1842.87
 30
0.000000
  70
    32
  0
VERTEX
  8
0
  5
CE0
 10
3414.21
 20
1842.85
 30
0.000000
  70
    32
  0
VERTEX
  8
0
  5
CE1
 10
3414.21
 20
1842.84
 30
0.000000
  70
    32
  0
VERTEX
  8
0
  5
CE2
 10
3414.21
 20
1842.83
 30
0.000000
  70
    32
  0
VERTEX
  8
0
  5
CE3
 10
3414.21
 20
1842.81
 30
0.000000
  70
    32
  0
VERTEX
  8
0
  5
CE4
 10
3414.21
 20
1842.80
 30
0.000000
  70
    32
  0
VERTEX
  8
0
  5
CE5
 10
3414.21
 20
1842.78
 30
0.000000
  70
    32
  0
VERTEX
  8
0
  5
CE6
 10
3414.21
 20
1842.77
 30
0.000000
  70
    32
  0
VERTEX
  8
0
  5
CE7
 10
3414.21
 20
1842.75
 30
0.000000
  70
    32
  0
VERTEX
  8
0
  5
CE8
 10
3414.21
 20
1842.74
 30
0.000000
  70
    32
  0
VERTEX
  8
0
  5
CE9
 10
3414.21
 20
1842.72
 30
0.000000
  70
    32
  0
VERTEX
  8
0
  5
CEA
 10
3414.21
 20
1842.71
 30
0.000000
  70
    32
  0
VERTEX
  8
0
  5
CEB
 10
3414.21
 20
1842.70
 30
0.000000
  70
    32
  0
VERTEX
  8
0
  5
CEC
 10
3414.22
 20
1842.68
 30
0.000000
  70
    32
  0
VERTEX
  8
0
  5
CED
 10
3414.22
 20
1842.67
 30
0.000000
  70
    32
  0
VERTEX
  8
0
  5
CEE
 10
3414.22
 20
1842.65
 30
0.000000
  70
    32
  0
VERTEX
  8
0
  5
CEF
 10
3414.22
 20
1842.64
 30
0.000000
  70
    32
  0
VERTEX
  8
0
  5
CF0
 10
3414.22
 20
1842.62
 30
0.000000
  70
    32
  0
VERTEX
  8
0
  5
CF1
 10
3414.22
 20
1842.61
 30
0.000000
  70
    32
  0
VERTEX
  8
0
  5
CF2
 10
3414.22
 20
1842.59
 30
0.000000
  70
    32
  0
VERTEX
  8
0
  5
CF3
 10
3414.22
 20
1842.58
 30
0.000000
  70
    32
  0
VERTEX
  8
0
  5
CF4
 10
3414.22
 20
1842.57
 30
0.000000
  70
    32
  0
VERTEX
  8
0
  5
CF5
 10
3414.22
 20
1842.55
 30
0.000000
  70
    32
  0
VERTEX
  8
0
  5
CF6
 10
3414.22
 20
1842.54
 30
0.000000
  70
    32
  0
VERTEX
  8
0
  5
CF7
 10
3414.22
 20
1842.52
 30
0.000000
  70
    32
  0
VERTEX
  8
0
  5
CF8
 10
3414.22
 20
1842.51
 30
0.000000
  70
    32
  0
VERTEX
  8
0
  5
CF9
 10
3414.22
 20
1842.49
 30
0.000000
  70
    32
  0
VERTEX
  8
0
  5
CFA
 10
3414.22
 20
1842.48
 30
0.000000
  70
    32
  0
VERTEX
  8
0
  5
CFB
 10
3414.22
 20
1842.46
 30
0.000000
  70
    32
  0
VERTEX
  8
0
  5
CFC
 10
3414.22
 20
1842.45
 30
0.000000
  70
    32
  0
VERTEX
  8
0
  5
CFD
 10
3414.22
 20
1842.44
 30
0.000000
  70
    32
  0
VERTEX
  8
0
  5
CFE
 10
3414.22
 20
1842.42
 30
0.000000
  70
    32
  0
VERTEX
  8
0
  5
CFF
 10
3414.23
 20
1842.41
 30
0.000000
  70
    32
  0
VERTEX
  8
0
  5
D00
 10
3414.23
 20
1842.39
 30
0.000000
  70
    32
  0
VERTEX
  8
0
  5
D01
 10
3414.23
 20
1842.38
 30
0.000000
  70
    32
  0
VERTEX
  8
0
  5
D02
 10
3414.23
 20
1842.36
 30
0.000000
  70
    32
  0
VERTEX
  8
0
  5
D03
 10
3414.23
 20
1842.35
 30
0.000000
  70
    32
  0
VERTEX
  8
0
  5
D04
 10
3414.23
 20
1842.34
 30
0.000000
  70
    32
  0
VERTEX
  8
0
  5
D05
 10
3414.23
 20
1842.32
 30
0.000000
  70
    32
  0
VERTEX
  8
0
  5
D06
 10
3414.23
 20
1842.31
 30
0.000000
  70
    32
  0
VERTEX
  8
0
  5
D07
 10
3414.23
 20
1842.29
 30
0.000000
  70
    32
  0
VERTEX
  8
0
  5
D08
 10
3414.23
 20
1842.28
 30
0.000000
  70
    32
  0
VERTEX
  8
0
  5
D09
 10
3414.23
 20
1842.26
 30
0.000000
  70
    32
  0
VERTEX
  8
0
  5
D0A
 10
3414.23
 20
1842.25
 30
0.000000
  70
    32
  0
VERTEX
  8
0
  5
D0B
 10
3414.23
 20
1842.23
 30
0.000000
  70
    32
  0
VERTEX
  8
0
  5
D0C
 10
3414.23
 20
1842.22
 30
0.000000
  70
    32
  0
VERTEX
  8
0
  5
D0D
 10
3414.23
 20
1842.21
 30
0.000000
  70
    32
  0
VERTEX
  8
0
  5
D0E
 10
3414.23
 20
1842.19
 30
0.000000
  70
    32
  0
VERTEX
  8
0
  5
D0F
 10
3414.23
 20
1842.18
 30
0.000000
  70
    32
  0
VERTEX
  8
0
  5
D10
 10
3414.23
 20
1842.16
 30
0.000000
  70
    32
  0
VERTEX
  8
0
  5
D11
 10
3414.23
 20
1842.15
 30
0.000000
  70
    32
  0
VERTEX
  8
0
  5
D12
 10
3414.23
 20
1842.13
 30
0.000000
  70
    32
  0
VERTEX
  8
0
  5
D13
 10
3414.24
 20
1842.12
 30
0.000000
  70
    32
  0
VERTEX
  8
0
  5
D14
 10
3414.24
 20
1842.10
 30
0.000000
  70
    32
  0
VERTEX
  8
0
  5
D15
 10
3414.24
 20
1842.09
 30
0.000000
  70
    32
  0
VERTEX
  8
0
  5
D16
 10
3414.24
 20
1842.08
 30
0.000000
  70
    32
  0
VERTEX
  8
0
  5
D17
 10
3414.24
 20
1842.06
 30
0.000000
  70
    32
  0
VERTEX
  8
0
  5
D18
 10
3414.24
 20
1842.05
 30
0.000000
  70
    32
  0
VERTEX
  8
0
  5
D19
 10
3414.24
 20
1842.03
 30
0.000000
  70
    32
  0
VERTEX
  8
0
  5
D1A
 10
3414.24
 20
1842.02
 30
0.000000
  70
    32
  0
VERTEX
  8
0
  5
D1B
 10
3414.24
 20
1842.00
 30
0.000000
  70
    32
  0
VERTEX
  8
0
  5
D1C
 10
3414.24
 20
1841.99
 30
0.000000
  70
    32
  0
VERTEX
  8
0
  5
D1D
 10
3414.24
 20
1841.97
 30
0.000000
  70
    32
  0
VERTEX
  8
0
  5
D1E
 10
3414.24
 20
1841.96
 30
0.000000
  70
    32
  0
VERTEX
  8
0
  5
D1F
 10
3414.24
 20
1841.95
 30
0.000000
  70
    32
  0
VERTEX
  8
0
  5
D20
 10
3414.24
 20
1841.93
 30
0.000000
  70
    32
  0
VERTEX
  8
0
  5
D21
 10
3414.24
 20
1841.92
 30
0.000000
  70
    32
  0
VERTEX
  8
0
  5
D22
 10
3414.24
 20
1841.90
 30
0.000000
  70
    32
  0
VERTEX
  8
0
  5
D23
 10
3414.24
 20
1841.89
 30
0.000000
  70
    32
  0
VERTEX
  8
0
  5
D24
 10
3414.24
 20
1841.87
 30
0.000000
  70
    32
  0
VERTEX
  8
0
  5
D25
 10
3414.25
 20
1841.86
 30
0.000000
  70
    32
  0
VERTEX
  8
0
  5
D26
 10
3414.25
 20
1841.84
 30
0.000000
  70
    32
  0
VERTEX
  8
0
  5
D27
 10
3414.25
 20
1841.83
 30
0.000000
  70
    32
  0
VERTEX
  8
0
  5
D28
 10
3414.25
 20
1841.82
 30
0.000000
  70
    32
  0
VERTEX
  8
0
  5
D29
 10
3414.25
 20
1841.80
 30
0.000000
  70
    32
  0
VERTEX
  8
0
  5
D2A
 10
3414.25
 20
1841.79
 30
0.000000
  70
    32
  0
VERTEX
  8
0
  5
D2B
 10
3414.25
 20
1841.77
 30
0.000000
  70
    32
  0
VERTEX
  8
0
  5
D2C
 10
3414.25
 20
1841.76
 30
0.000000
  70
    32
  0
VERTEX
  8
0
  5
D2D
 10
3414.25
 20
1841.74
 30
0.000000
  70
    32
  0
VERTEX
  8
0
  5
D2E
 10
3414.25
 20
1841.73
 30
0.000000
  70
    32
  0
VERTEX
  8
0
  5
D2F
 10
3414.25
 20
1841.71
 30
0.000000
  70
    32
  0
VERTEX
  8
0
  5
D30
 10
3414.25
 20
1841.70
 30
0.000000
  70
    32
  0
VERTEX
  8
0
  5
D31
 10
3414.25
 20
1841.69
 30
0.000000
  70
    32
  0
VERTEX
  8
0
  5
D32
 10
3414.25
 20
1841.67
 30
0.000000
  70
    32
  0
VERTEX
  8
0
  5
D33
 10
3414.25
 20
1841.66
 30
0.000000
  70
    32
  0
VERTEX
  8
0
  5
D34
 10
3414.25
 20
1841.64
 30
0.000000
  70
    32
  0
VERTEX
  8
0
  5
D35
 10
3414.25
 20
1841.63
 30
0.000000
  70
    32
  0
VERTEX
  8
0
  5
D36
 10
3414.25
 20
1841.61
 30
0.000000
  70
    32
  0
VERTEX
  8
0
  5
D37
 10
3414.26
 20
1841.60
 30
0.000000
  70
    32
  0
VERTEX
  8
0
  5
D38
 10
3414.26
 20
1841.58
 30
0.000000
  70
    32
  0
VERTEX
  8
0
  5
D39
 10
3414.26
 20
1841.57
 30
0.000000
  70
    32
  0
VERTEX
  8
0
  5
D3A
 10
3414.26
 20
1841.56
 30
0.000000
  70
    32
  0
VERTEX
  8
0
  5
D3B
 10
3414.26
 20
1841.54
 30
0.000000
  70
    32
  0
VERTEX
  8
0
  5
D3C
 10
3414.26
 20
1841.53
 30
0.000000
  70
    32
  0
VERTEX
  8
0
  5
D3D
 10
3414.26
 20
1841.51
 30
0.000000
  70
    32
  0
VERTEX
  8
0
  5
D3E
 10
3414.26
 20
1841.50
 30
0.000000
  70
    32
  0
VERTEX
  8
0
  5
D3F
 10
3414.26
 20
1841.48
 30
0.000000
  70
    32
  0
VERTEX
  8
0
  5
D40
 10
3414.26
 20
1841.47
 30
0.000000
  70
    32
  0
VERTEX
  8
0
  5
D41
 10
3414.26
 20
1841.45
 30
0.000000
  70
    32
  0
VERTEX
  8
0
  5
D42
 10
3414.26
 20
1841.44
 30
0.000000
  70
    32
  0
VERTEX
  8
0
  5
D43
 10
3414.26
 20
1841.43
 30
0.000000
  70
    32
  0
VERTEX
  8
0
  5
D44
 10
3414.26
 20
1841.41
 30
0.000000
  70
    32
  0
VERTEX
  8
0
  5
D45
 10
3414.26
 20
1841.40
 30
0.000000
  70
    32
  0
VERTEX
  8
0
  5
D46
 10
3414.26
 20
1841.38
 30
0.000000
  70
    32
  0
VERTEX
  8
0
  5
D47
 10
3414.26
 20
1841.37
 30
0.000000
  70
    32
  0
VERTEX
  8
0
  5
D48
 10
3414.26
 20
1841.35
 30
0.000000
  70
    32
  0
VERTEX
  8
0
  5
D49
 10
3414.27
 20
1841.34
 30
0.000000
  70
    32
  0
VERTEX
  8
0
  5
D4A
 10
3414.27
 20
1841.32
 30
0.000000
  70
    32
  0
VERTEX
  8
0
  5
D4B
 10
3414.27
 20
1841.31
 30
0.000000
  70
    32
  0
VERTEX
  8
0
  5
D4C
 10
3414.27
 20
1841.30
 30
0.000000
  70
    32
  0
VERTEX
  8
0
  5
D4D
 10
3414.27
 20
1841.28
 30
0.000000
  70
    32
  0
VERTEX
  8
0
  5
D4E
 10
3414.27
 20
1841.27
 30
0.000000
  70
    32
  0
VERTEX
  8
0
  5
D4F
 10
3414.27
 20
1841.25
 30
0.000000
  70
    32
  0
VERTEX
  8
0
  5
D50
 10
3414.27
 20
1841.24
 30
0.000000
  70
    32
  0
VERTEX
  8
0
  5
D51
 10
3414.27
 20
1841.22
 30
0.000000
  70
    32
  0
VERTEX
  8
0
  5
D52
 10
3414.27
 20
1841.21
 30
0.000000
  70
    32
  0
VERTEX
  8
0
  5
D53
 10
3414.27
 20
1841.19
 30
0.000000
  70
    32
  0
VERTEX
  8
0
  5
D54
 10
3414.27
 20
1841.18
 30
0.000000
  70
    32
  0
VERTEX
  8
0
  5
D55
 10
3414.27
 20
1841.17
 30
0.000000
  70
    32
  0
VERTEX
  8
0
  5
D56
 10
3414.27
 20
1841.15
 30
0.000000
  70
    32
  0
VERTEX
  8
0
  5
D57
 10
3414.27
 20
1841.14
 30
0.000000
  70
    32
  0
VERTEX
  8
0
  5
D58
 10
3414.27
 20
1841.12
 30
0.000000
  70
    32
  0
VERTEX
  8
0
  5
D59
 10
3414.27
 20
1841.11
 30
0.000000
  70
    32
  0
VERTEX
  8
0
  5
D5A
 10
3414.27
 20
1841.09
 30
0.000000
  70
    32
  0
VERTEX
  8
0
  5
D5B
 10
3414.28
 20
1841.08
 30
0.000000
  70
    32
  0
VERTEX
  8
0
  5
D5C
 10
3414.28
 20
1841.06
 30
0.000000
  70
    32
  0
VERTEX
  8
0
  5
D5D
 10
3414.28
 20
1841.05
 30
0.000000
  70
    32
  0
VERTEX
  8
0
  5
D5E
 10
3414.28
 20
1841.04
 30
0.000000
  70
    32
  0
VERTEX
  8
0
  5
D5F
 10
3414.28
 20
1841.02
 30
0.000000
  70
    32
  0
VERTEX
  8
0
  5
D60
 10
3414.28
 20
1841.01
 30
0.000000
  70
    32
  0
VERTEX
  8
0
  5
D61
 10
3414.28
 20
1840.99
 30
0.000000
  70
    32
  0
VERTEX
  8
0
  5
D62
 10
3414.28
 20
1840.98
 30
0.000000
  70
    32
  0
VERTEX
  8
0
  5
D63
 10
3414.28
 20
1840.96
 30
0.000000
  70
    32
  0
VERTEX
  8
0
  5
D64
 10
3414.28
 20
1840.95
 30
0.000000
  70
    32
  0
VERTEX
  8
0
  5
D65
 10
3414.28
 20
1840.94
 30
0.000000
  70
    32
  0
VERTEX
  8
0
  5
D66
 10
3414.28
 20
1840.92
 30
0.000000
  70
    32
  0
VERTEX
  8
0
  5
D67
 10
3414.28
 20
1840.91
 30
0.000000
  70
    32
  0
VERTEX
  8
0
  5
D68
 10
3414.28
 20
1840.89
 30
0.000000
  70
    32
  0
VERTEX
  8
0
  5
D69
 10
3414.28
 20
1840.88
 30
0.000000
  70
    32
  0
VERTEX
  8
0
  5
D6A
 10
3414.28
 20
1840.86
 30
0.000000
  70
    32
  0
VERTEX
  8
0
  5
D6B
 10
3414.28
 20
1840.85
 30
0.000000
  70
    32
  0
VERTEX
  8
0
  5
D6C
 10
3414.29
 20
1840.83
 30
0.000000
  70
    32
  0
VERTEX
  8
0
  5
D6D
 10
3414.29
 20
1840.82
 30
0.000000
  70
    32
  0
VERTEX
  8
0
  5
D6E
 10
3414.29
 20
1840.81
 30
0.000000
  70
    32
  0
VERTEX
  8
0
  5
D6F
 10
3414.29
 20
1840.79
 30
0.000000
  70
    32
  0
VERTEX
  8
0
  5
D70
 10
3414.29
 20
1840.78
 30
0.000000
  70
    32
  0
VERTEX
  8
0
  5
D71
 10
3414.29
 20
1840.76
 30
0.000000
  70
    32
  0
VERTEX
  8
0
  5
D72
 10
3414.29
 20
1840.75
 30
0.000000
  70
    32
  0
VERTEX
  8
0
  5
D73
 10
3414.29
 20
1840.73
 30
0.000000
  70
    32
  0
VERTEX
  8
0
  5
D74
 10
3414.29
 20
1840.72
 30
0.000000
  70
    32
  0
VERTEX
  8
0
  5
D75
 10
3414.29
 20
1840.70
 30
0.000000
  70
    32
  0
VERTEX
  8
0
  5
D76
 10
3414.29
 20
1840.69
 30
0.000000
  70
    32
  0
VERTEX
  8
0
  5
D77
 10
3414.29
 20
1840.68
 30
0.000000
  70
    32
  0
VERTEX
  8
0
  5
D78
 10
3414.29
 20
1840.66
 30
0.000000
  70
    32
  0
VERTEX
  8
0
  5
D79
 10
3414.29
 20
1840.65
 30
0.000000
  70
    32
  0
VERTEX
  8
0
  5
D7A
 10
3414.29
 20
1840.63
 30
0.000000
  70
    32
  0
VERTEX
  8
0
  5
D7B
 10
3414.29
 20
1840.62
 30
0.000000
  70
    32
  0
VERTEX
  8
0
  5
D7C
 10
3414.30
 20
1840.60
 30
0.000000
  70
    32
  0
VERTEX
  8
0
  5
D7D
 10
3414.30
 20
1840.59
 30
0.000000
  70
    32
  0
VERTEX
  8
0
  5
D7E
 10
3414.30
 20
1840.57
 30
0.000000
  70
    32
  0
VERTEX
  8
0
  5
D7F
 10
3414.30
 20
1840.56
 30
0.000000
  70
    32
  0
VERTEX
  8
0
  5
D80
 10
3414.30
 20
1840.55
 30
0.000000
  70
    32
  0
VERTEX
  8
0
  5
D81
 10
3414.30
 20
1840.53
 30
0.000000
  70
    32
  0
VERTEX
  8
0
  5
D82
 10
3414.30
 20
1840.52
 30
0.000000
  70
    32
  0
VERTEX
  8
0
  5
D83
 10
3414.30
 20
1840.50
 30
0.000000
  70
    32
  0
VERTEX
  8
0
  5
D84
 10
3414.30
 20
1840.49
 30
0.000000
  70
    32
  0
VERTEX
  8
0
  5
D85
 10
3414.30
 20
1840.47
 30
0.000000
  70
    32
  0
VERTEX
  8
0
  5
D86
 10
3414.30
 20
1840.46
 30
0.000000
  70
    32
  0
VERTEX
  8
0
  5
D87
 10
3414.30
 20
1840.44
 30
0.000000
  70
    32
  0
VERTEX
  8
0
  5
D88
 10
3414.30
 20
1840.43
 30
0.000000
  70
    32
  0
VERTEX
  8
0
  5
D89
 10
3414.30
 20
1840.42
 30
0.000000
  70
    32
  0
VERTEX
  8
0
  5
D8A
 10
3414.30
 20
1840.40
 30
0.000000
  70
    32
  0
VERTEX
  8
0
  5
D8B
 10
3414.30
 20
1840.39
 30
0.000000
  70
    32
  0
VERTEX
  8
0
  5
D8C
 10
3414.31
 20
1840.37
 30
0.000000
  70
    32
  0
VERTEX
  8
0
  5
D8D
 10
3414.31
 20
1840.36
 30
0.000000
  70
    32
  0
VERTEX
  8
0
  5
D8E
 10
3414.31
 20
1840.34
 30
0.000000
  70
    32
  0
VERTEX
  8
0
  5
D8F
 10
3414.31
 20
1840.33
 30
0.000000
  70
    32
  0
VERTEX
  8
0
  5
D90
 10
3414.31
 20
1840.31
 30
0.000000
  70
    32
  0
VERTEX
  8
0
  5
D91
 10
3414.31
 20
1840.30
 30
0.000000
  70
    32
  0
VERTEX
  8
0
  5
D92
 10
3414.31
 20
1840.29
 30
0.000000
  70
    32
  0
VERTEX
  8
0
  5
D93
 10
3414.31
 20
1840.27
 30
0.000000
  70
    32
  0
VERTEX
  8
0
  5
D94
 10
3414.31
 20
1840.26
 30
0.000000
  70
    32
  0
VERTEX
  8
0
  5
D95
 10
3414.31
 20
1840.24
 30
0.000000
  70
    32
  0
VERTEX
  8
0
  5
D96
 10
3414.31
 20
1840.23
 30
0.000000
  70
    32
  0
VERTEX
  8
0
  5
D97
 10
3414.31
 20
1840.21
 30
0.000000
  70
    32
  0
VERTEX
  8
0
  5
D98
 10
3414.31
 20
1840.20
 30
0.000000
  70
    32
  0
VERTEX
  8
0
  5
D99
 10
3414.31
 20
1840.18
 30
0.000000
  70
    32
  0
VERTEX
  8
0
  5
D9A
 10
3414.31
 20
1840.17
 30
0.000000
  70
    32
  0
VERTEX
  8
0
  5
D9B
 10
3414.31
 20
1840.16
 30
0.000000
  70
    32
  0
VERTEX
  8
0
  5
D9C
 10
3414.32
 20
1840.14
 30
0.000000
  70
    32
  0
VERTEX
  8
0
  5
D9D
 10
3414.32
 20
1840.13
 30
0.000000
  70
    32
  0
VERTEX
  8
0
  5
D9E
 10
3414.32
 20
1840.11
 30
0.000000
  70
    32
  0
VERTEX
  8
0
  5
D9F
 10
3414.32
 20
1840.10
 30
0.000000
  70
    32
  0
VERTEX
  8
0
  5
DA0
 10
3414.32
 20
1840.08
 30
0.000000
  70
    32
  0
VERTEX
  8
0
  5
DA1
 10
3414.32
 20
1840.07
 30
0.000000
  70
    32
  0
VERTEX
  8
0
  5
DA2
 10
3414.32
 20
1840.05
 30
0.000000
  70
    32
  0
VERTEX
  8
0
  5
DA3
 10
3414.32
 20
1840.04
 30
0.000000
  70
    32
  0
VERTEX
  8
0
  5
DA4
 10
3414.32
 20
1840.03
 30
0.000000
  70
    32
  0
VERTEX
  8
0
  5
DA5
 10
3414.32
 20
1840.01
 30
0.000000
  70
    32
  0
VERTEX
  8
0
  5
DA6
 10
3414.32
 20
1840.00
 30
0.000000
  70
    32
  0
VERTEX
  8
0
  5
DA7
 10
3414.32
 20
1839.98
 30
0.000000
  70
    32
  0
VERTEX
  8
0
  5
DA8
 10
3414.32
 20
1839.97
 30
0.000000
  70
    32
  0
VERTEX
  8
0
  5
DA9
 10
3414.32
 20
1839.95
 30
0.000000
  70
    32
  0
VERTEX
  8
0
  5
DAA
 10
3414.32
 20
1839.94
 30
0.000000
  70
    32
  0
VERTEX
  8
0
  5
DAB
 10
3414.32
 20
1839.92
 30
0.000000
  70
    32
  0
VERTEX
  8
0
  5
DAC
 10
3414.33
 20
1839.91
 30
0.000000
  70
    32
  0
VERTEX
  8
0
  5
DAD
 10
3414.33
 20
1839.90
 30
0.000000
  70
    32
  0
VERTEX
  8
0
  5
DAE
 10
3414.33
 20
1839.88
 30
0.000000
  70
    32
  0
VERTEX
  8
0
  5
DAF
 10
3414.33
 20
1839.87
 30
0.000000
  70
    32
  0
VERTEX
  8
0
  5
DB0
 10
3414.33
 20
1839.85
 30
0.000000
  70
    32
  0
VERTEX
  8
0
  5
DB1
 10
3414.33
 20
1839.84
 30
0.000000
  70
    32
  0
VERTEX
  8
0
  5
DB2
 10
3414.33
 20
1839.82
 30
0.000000
  70
    32
  0
VERTEX
  8
0
  5
DB3
 10
3414.33
 20
1839.81
 30
0.000000
  70
    32
  0
VERTEX
  8
0
  5
DB4
 10
3414.33
 20
1839.79
 30
0.000000
  70
    32
  0
VERTEX
  8
0
  5
DB5
 10
3414.33
 20
1839.78
 30
0.000000
  70
    32
  0
VERTEX
  8
0
  5
DB6
 10
3414.33
 20
1839.77
 30
0.000000
  70
    32
  0
VERTEX
  8
0
  5
DB7
 10
3414.33
 20
1839.75
 30
0.000000
  70
    32
  0
VERTEX
  8
0
  5
DB8
 10
3414.33
 20
1839.74
 30
0.000000
  70
    32
  0
VERTEX
  8
0
  5
DB9
 10
3414.33
 20
1839.72
 30
0.000000
  70
    32
  0
VERTEX
  8
0
  5
DBA
 10
3414.33
 20
1839.71
 30
0.000000
  70
    32
  0
VERTEX
  8
0
  5
DBB
 10
3414.34
 20
1839.69
 30
0.000000
  70
    32
  0
VERTEX
  8
0
  5
DBC
 10
3414.34
 20
1839.68
 30
0.000000
  70
    32
  0
VERTEX
  8
0
  5
DBD
 10
3414.34
 20
1839.66
 30
0.000000
  70
    32
  0
VERTEX
  8
0
  5
DBE
 10
3414.34
 20
1839.65
 30
0.000000
  70
    32
  0
VERTEX
  8
0
  5
DBF
 10
3414.34
 20
1839.64
 30
0.000000
  70
    32
  0
VERTEX
  8
0
  5
DC0
 10
3414.34
 20
1839.62
 30
0.000000
  70
    32
  0
VERTEX
  8
0
  5
DC1
 10
3414.34
 20
1839.61
 30
0.000000
  70
    32
  0
VERTEX
  8
0
  5
DC2
 10
3414.34
 20
1839.59
 30
0.000000
  70
    32
  0
VERTEX
  8
0
  5
DC3
 10
3414.34
 20
1839.58
 30
0.000000
  70
    32
  0
VERTEX
  8
0
  5
DC4
 10
3414.34
 20
1839.56
 30
0.000000
  70
    32
  0
VERTEX
  8
0
  5
DC5
 10
3414.34
 20
1839.55
 30
0.000000
  70
    32
  0
VERTEX
  8
0
  5
DC6
 10
3414.34
 20
1839.54
 30
0.000000
  70
    32
  0
VERTEX
  8
0
  5
DC7
 10
3414.34
 20
1839.52
 30
0.000000
  70
    32
  0
VERTEX
  8
0
  5
DC8
 10
3414.34
 20
1839.51
 30
0.000000
  70
    32
  0
VERTEX
  8
0
  5
DC9
 10
3414.34
 20
1839.49
 30
0.000000
  70
    32
  0
VERTEX
  8
0
  5
DCA
 10
3414.35
 20
1839.48
 30
0.000000
  70
    32
  0
VERTEX
  8
0
  5
DCB
 10
3414.35
 20
1839.46
 30
0.000000
  70
    32
  0
VERTEX
  8
0
  5
DCC
 10
3414.35
 20
1839.45
 30
0.000000
  70
    32
  0
VERTEX
  8
0
  5
DCD
 10
3414.35
 20
1839.43
 30
0.000000
  70
    32
  0
VERTEX
  8
0
  5
DCE
 10
3414.35
 20
1839.42
 30
0.000000
  70
    32
  0
VERTEX
  8
0
  5
DCF
 10
3414.35
 20
1839.41
 30
0.000000
  70
    32
  0
VERTEX
  8
0
  5
DD0
 10
3414.35
 20
1839.39
 30
0.000000
  70
    32
  0
VERTEX
  8
0
  5
DD1
 10
3414.35
 20
1839.38
 30
0.000000
  70
    32
  0
VERTEX
  8
0
  5
DD2
 10
3414.35
 20
1839.36
 30
0.000000
  70
    32
  0
VERTEX
  8
0
  5
DD3
 10
3414.35
 20
1839.35
 30
0.000000
  70
    32
  0
VERTEX
  8
0
  5
DD4
 10
3414.35
 20
1839.33
 30
0.000000
  70
    32
  0
VERTEX
  8
0
  5
DD5
 10
3414.35
 20
1839.32
 30
0.000000
  70
    32
  0
VERTEX
  8
0
  5
DD6
 10
3414.35
 20
1839.30
 30
0.000000
  70
    32
  0
VERTEX
  8
0
  5
DD7
 10
3414.35
 20
1839.29
 30
0.000000
  70
    32
  0
VERTEX
  8
0
  5
DD8
 10
3414.35
 20
1839.28
 30
0.000000
  70
    32
  0
VERTEX
  8
0
  5
DD9
 10
3414.36
 20
1839.26
 30
0.000000
  70
    32
  0
VERTEX
  8
0
  5
DDA
 10
3414.36
 20
1839.25
 30
0.000000
  70
    32
  0
VERTEX
  8
0
  5
DDB
 10
3414.36
 20
1839.23
 30
0.000000
  70
    32
  0
VERTEX
  8
0
  5
DDC
 10
3414.36
 20
1839.22
 30
0.000000
  70
    32
  0
VERTEX
  8
0
  5
DDD
 10
3414.36
 20
1839.20
 30
0.000000
  70
    32
  0
VERTEX
  8
0
  5
DDE
 10
3414.36
 20
1839.19
 30
0.000000
  70
    32
  0
VERTEX
  8
0
  5
DDF
 10
3414.36
 20
1839.17
 30
0.000000
  70
    32
  0
VERTEX
  8
0
  5
DE0
 10
3414.36
 20
1839.16
 30
0.000000
  70
    32
  0
VERTEX
  8
0
  5
DE1
 10
3414.36
 20
1839.15
 30
0.000000
  70
    32
  0
VERTEX
  8
0
  5
DE2
 10
3414.36
 20
1839.13
 30
0.000000
  70
    32
  0
VERTEX
  8
0
  5
DE3
 10
3414.36
 20
1839.12
 30
0.000000
  70
    32
  0
VERTEX
  8
0
  5
DE4
 10
3414.36
 20
1839.10
 30
0.000000
  70
    32
  0
VERTEX
  8
0
  5
DE5
 10
3414.36
 20
1839.09
 30
0.000000
  70
    32
  0
VERTEX
  8
0
  5
DE6
 10
3414.36
 20
1839.07
 30
0.000000
  70
    32
  0
VERTEX
  8
0
  5
DE7
 10
3414.36
 20
1839.06
 30
0.000000
  70
    32
  0
VERTEX
  8
0
  5
DE8
 10
3414.37
 20
1839.04
 30
0.000000
  70
    32
  0
VERTEX
  8
0
  5
DE9
 10
3414.37
 20
1839.03
 30
0.000000
  70
    32
  0
VERTEX
  8
0
  5
DEA
 10
3414.37
 20
1839.02
 30
0.000000
  70
    32
  0
VERTEX
  8
0
  5
DEB
 10
3414.37
 20
1839.00
 30
0.000000
  70
    32
  0
VERTEX
  8
0
  5
DEC
 10
3414.37
 20
1838.99
 30
0.000000
  70
    32
  0
VERTEX
  8
0
  5
DED
 10
3414.37
 20
1838.97
 30
0.000000
  70
    32
  0
VERTEX
  8
0
  5
DEE
 10
3414.37
 20
1838.96
 30
0.000000
  70
    32
  0
VERTEX
  8
0
  5
DEF
 10
3414.37
 20
1838.94
 30
0.000000
  70
    32
  0
VERTEX
  8
0
  5
DF0
 10
3414.37
 20
1838.93
 30
0.000000
  70
    32
  0
VERTEX
  8
0
  5
DF1
 10
3414.37
 20
1838.91
 30
0.000000
  70
    32
  0
VERTEX
  8
0
  5
DF2
 10
3414.37
 20
1838.90
 30
0.000000
  70
    32
  0
VERTEX
  8
0
  5
DF3
 10
3414.37
 20
1838.89
 30
0.000000
  70
    32
  0
VERTEX
  8
0
  5
DF4
 10
3414.37
 20
1838.87
 30
0.000000
  70
    32
  0
VERTEX
  8
0
  5
DF5
 10
3414.37
 20
1838.86
 30
0.000000
  70
    32
  0
VERTEX
  8
0
  5
DF6
 10
3414.38
 20
1838.84
 30
0.000000
  70
    32
  0
VERTEX
  8
0
  5
DF7
 10
3414.38
 20
1838.83
 30
0.000000
  70
    32
  0
VERTEX
  8
0
  5
DF8
 10
3414.38
 20
1838.81
 30
0.000000
  70
    32
  0
VERTEX
  8
0
  5
DF9
 10
3414.38
 20
1838.80
 30
0.000000
  70
    32
  0
VERTEX
  8
0
  5
DFA
 10
3414.38
 20
1838.78
 30
0.000000
  70
    32
  0
VERTEX
  8
0
  5
DFB
 10
3414.38
 20
1838.77
 30
0.000000
  70
    32
  0
VERTEX
  8
0
  5
DFC
 10
3414.38
 20
1838.76
 30
0.000000
  70
    32
  0
VERTEX
  8
0
  5
DFD
 10
3414.38
 20
1838.74
 30
0.000000
  70
    32
  0
VERTEX
  8
0
  5
DFE
 10
3414.38
 20
1838.73
 30
0.000000
  70
    32
  0
VERTEX
  8
0
  5
DFF
 10
3414.38
 20
1838.71
 30
0.000000
  70
    32
  0
VERTEX
  8
0
  5
E00
 10
3414.38
 20
1838.70
 30
0.000000
  70
    32
  0
VERTEX
  8
0
  5
E01
 10
3414.38
 20
1838.68
 30
0.000000
  70
    32
  0
VERTEX
  8
0
  5
E02
 10
3414.38
 20
1838.67
 30
0.000000
  70
    32
  0
VERTEX
  8
0
  5
E03
 10
3414.38
 20
1838.65
 30
0.000000
  70
    32
  0
VERTEX
  8
0
  5
E04
 10
3414.39
 20
1838.64
 30
0.000000
  70
    32
  0
VERTEX
  8
0
  5
E05
 10
3414.39
 20
1838.63
 30
0.000000
  70
    32
  0
VERTEX
  8
0
  5
E06
 10
3414.39
 20
1838.61
 30
0.000000
  70
    32
  0
VERTEX
  8
0
  5
E07
 10
3414.39
 20
1838.60
 30
0.000000
  70
    32
  0
VERTEX
  8
0
  5
E08
 10
3414.39
 20
1838.58
 30
0.000000
  70
    32
  0
VERTEX
  8
0
  5
E09
 10
3414.39
 20
1838.57
 30
0.000000
  70
    32
  0
VERTEX
  8
0
  5
E0A
 10
3414.39
 20
1838.55
 30
0.000000
  70
    32
  0
VERTEX
  8
0
  5
E0B
 10
3414.39
 20
1838.54
 30
0.000000
  70
    32
  0
VERTEX
  8
0
  5
E0C
 10
3414.39
 20
1838.52
 30
0.000000
  70
    32
  0
VERTEX
  8
0
  5
E0D
 10
3414.39
 20
1838.51
 30
0.000000
  70
    32
  0
VERTEX
  8
0
  5
E0E
 10
3414.39
 20
1838.50
 30
0.000000
  70
    32
  0
VERTEX
  8
0
  5
E0F
 10
3414.39
 20
1838.48
 30
0.000000
  70
    32
  0
VERTEX
  8
0
  5
E10
 10
3414.39
 20
1838.47
 30
0.000000
  70
    32
  0
VERTEX
  8
0
  5
E11
 10
3414.39
 20
1838.45
 30
0.000000
  70
    32
  0
VERTEX
  8
0
  5
E12
 10
3414.40
 20
1838.44
 30
0.000000
  70
    32
  0
VERTEX
  8
0
  5
E13
 10
3414.40
 20
1838.42
 30
0.000000
  70
    32
  0
VERTEX
  8
0
  5
E14
 10
3414.40
 20
1838.41
 30
0.000000
  70
    32
  0
VERTEX
  8
0
  5
E15
 10
3414.40
 20
1838.39
 30
0.000000
  70
    32
  0
VERTEX
  8
0
  5
E16
 10
3414.40
 20
1838.38
 30
0.000000
  70
    32
  0
VERTEX
  8
0
  5
E17
 10
3414.40
 20
1838.37
 30
0.000000
  70
    32
  0
VERTEX
  8
0
  5
E18
 10
3414.40
 20
1838.35
 30
0.000000
  70
    32
  0
VERTEX
  8
0
  5
E19
 10
3414.40
 20
1838.34
 30
0.000000
  70
    32
  0
VERTEX
  8
0
  5
E1A
 10
3414.40
 20
1838.32
 30
0.000000
  70
    32
  0
VERTEX
  8
0
  5
E1B
 10
3414.40
 20
1838.31
 30
0.000000
  70
    32
  0
VERTEX
  8
0
  5
E1C
 10
3414.40
 20
1838.29
 30
0.000000
  70
    32
  0
VERTEX
  8
0
  5
E1D
 10
3414.40
 20
1838.28
 30
0.000000
  70
    32
  0
VERTEX
  8
0
  5
E1E
 10
3414.40
 20
1838.26
 30
0.000000
  70
    32
  0
VERTEX
  8
0
  5
E1F
 10
3414.41
 20
1838.25
 30
0.000000
  70
    32
  0
VERTEX
  8
0
  5
E20
 10
3414.41
 20
1838.24
 30
0.000000
  70
    32
  0
VERTEX
  8
0
  5
E21
 10
3414.41
 20
1838.22
 30
0.000000
  70
    32
  0
VERTEX
  8
0
  5
E22
 10
3414.41
 20
1838.21
 30
0.000000
  70
    32
  0
VERTEX
  8
0
  5
E23
 10
3414.41
 20
1838.19
 30
0.000000
  70
    32
  0
VERTEX
  8
0
  5
E24
 10
3414.41
 20
1838.18
 30
0.000000
  70
    32
  0
VERTEX
  8
0
  5
E25
 10
3414.41
 20
1838.16
 30
0.000000
  70
    32
  0
VERTEX
  8
0
  5
E26
 10
3414.41
 20
1838.15
 30
0.000000
  70
    32
  0
VERTEX
  8
0
  5
E27
 10
3414.41
 20
1838.13
 30
0.000000
  70
    32
  0
VERTEX
  8
0
  5
E28
 10
3414.41
 20
1838.12
 30
0.000000
  70
    32
  0
VERTEX
  8
0
  5
E29
 10
3414.41
 20
1838.11
 30
0.000000
  70
    32
  0
VERTEX
  8
0
  5
E2A
 10
3414.41
 20
1838.09
 30
0.000000
  70
    32
  0
VERTEX
  8
0
  5
E2B
 10
3414.41
 20
1838.08
 30
0.000000
  70
    32
  0
VERTEX
  8
0
  5
E2C
 10
3414.42
 20
1838.06
 30
0.000000
  70
    32
  0
VERTEX
  8
0
  5
E2D
 10
3414.42
 20
1838.05
 30
0.000000
  70
    32
  0
VERTEX
  8
0
  5
E2E
 10
3414.42
 20
1838.03
 30
0.000000
  70
    32
  0
VERTEX
  8
0
  5
E2F
 10
3414.42
 20
1838.02
 30
0.000000
  70
    32
  0
VERTEX
  8
0
  5
E30
 10
3414.42
 20
1838.00
 30
0.000000
  70
    32
  0
VERTEX
  8
0
  5
E31
 10
3414.42
 20
1837.99
 30
0.000000
  70
    32
  0
VERTEX
  8
0
  5
E32
 10
3414.42
 20
1837.98
 30
0.000000
  70
    32
  0
VERTEX
  8
0
  5
E33
 10
3414.42
 20
1837.96
 30
0.000000
  70
    32
  0
VERTEX
  8
0
  5
E34
 10
3414.42
 20
1837.95
 30
0.000000
  70
    32
  0
VERTEX
  8
0
  5
E35
 10
3414.42
 20
1837.93
 30
0.000000
  70
    32
  0
VERTEX
  8
0
  5
E36
 10
3414.42
 20
1837.92
 30
0.000000
  70
    32
  0
VERTEX
  8
0
  5
E37
 10
3414.42
 20
1837.90
 30
0.000000
  70
    32
  0
VERTEX
  8
0
  5
E38
 10
3414.42
 20
1837.89
 30
0.000000
  70
    32
  0
VERTEX
  8
0
  5
E39
 10
3414.43
 20
1837.88
 30
0.000000
  70
    32
  0
VERTEX
  8
0
  5
E3A
 10
3414.43
 20
1837.86
 30
0.000000
  70
    32
  0
VERTEX
  8
0
  5
E3B
 10
3414.43
 20
1837.85
 30
0.000000
  70
    32
  0
VERTEX
  8
0
  5
E3C
 10
3414.43
 20
1837.83
 30
0.000000
  70
    32
  0
VERTEX
  8
0
  5
E3D
 10
3414.43
 20
1837.82
 30
0.000000
  70
    32
  0
VERTEX
  8
0
  5
E3E
 10
3414.43
 20
1837.80
 30
0.000000
  70
    32
  0
VERTEX
  8
0
  5
E3F
 10
3414.43
 20
1837.79
 30
0.000000
  70
    32
  0
VERTEX
  8
0
  5
E40
 10
3414.43
 20
1837.77
 30
0.000000
  70
    32
  0
VERTEX
  8
0
  5
E41
 10
3414.43
 20
1837.76
 30
0.000000
  70
    32
  0
VERTEX
  8
0
  5
E42
 10
3414.43
 20
1837.75
 30
0.000000
  70
    32
  0
VERTEX
  8
0
  5
E43
 10
3414.43
 20
1837.73
 30
0.000000
  70
    32
  0
VERTEX
  8
0
  5
E44
 10
3414.43
 20
1837.72
 30
0.000000
  70
    32
  0
VERTEX
  8
0
  5
E45
 10
3414.43
 20
1837.70
 30
0.000000
  70
    32
  0
VERTEX
  8
0
  5
E46
 10
3414.44
 20
1837.69
 30
0.000000
  70
    32
  0
VERTEX
  8
0
  5
E47
 10
3414.44
 20
1837.67
 30
0.000000
  70
    32
  0
VERTEX
  8
0
  5
E48
 10
3414.44
 20
1837.66
 30
0.000000
  70
    32
  0
VERTEX
  8
0
  5
E49
 10
3414.44
 20
1837.64
 30
0.000000
  70
    32
  0
VERTEX
  8
0
  5
E4A
 10
3414.44
 20
1837.63
 30
0.000000
  70
    32
  0
VERTEX
  8
0
  5
E4B
 10
3414.44
 20
1837.62
 30
0.000000
  70
    32
  0
VERTEX
  8
0
  5
E4C
 10
3414.44
 20
1837.60
 30
0.000000
  70
    32
  0
VERTEX
  8
0
  5
E4D
 10
3414.44
 20
1837.59
 30
0.000000
  70
    32
  0
VERTEX
  8
0
  5
E4E
 10
3414.44
 20
1837.57
 30
0.000000
  70
    32
  0
VERTEX
  8
0
  5
E4F
 10
3414.44
 20
1837.56
 30
0.000000
  70
    32
  0
VERTEX
  8
0
  5
E50
 10
3414.44
 20
1837.54
 30
0.000000
  70
    32
  0
VERTEX
  8
0
  5
E51
 10
3414.44
 20
1837.53
 30
0.000000
  70
    32
  0
VERTEX
  8
0
  5
E52
 10
3414.44
 20
1837.51
 30
0.000000
  70
    32
  0
VERTEX
  8
0
  5
E53
 10
3414.45
 20
1837.50
 30
0.000000
  70
    32
  0
VERTEX
  8
0
  5
E54
 10
3414.45
 20
1837.49
 30
0.000000
  70
    32
  0
VERTEX
  8
0
  5
E55
 10
3414.45
 20
1837.47
 30
0.000000
  70
    32
  0
VERTEX
  8
0
  5
E56
 10
3414.45
 20
1837.46
 30
0.000000
  70
    32
  0
VERTEX
  8
0
  5
E57
 10
3414.45
 20
1837.44
 30
0.000000
  70
    32
  0
VERTEX
  8
0
  5
E58
 10
3414.45
 20
1837.43
 30
0.000000
  70
    32
  0
VERTEX
  8
0
  5
E59
 10
3414.45
 20
1837.41
 30
0.000000
  70
    32
  0
VERTEX
  8
0
  5
E5A
 10
3414.45
 20
1837.40
 30
0.000000
  70
    32
  0
VERTEX
  8
0
  5
E5B
 10
3414.45
 20
1837.38
 30
0.000000
  70
    32
  0
VERTEX
  8
0
  5
E5C
 10
3414.45
 20
1837.37
 30
0.000000
  70
    32
  0
VERTEX
  8
0
  5
E5D
 10
3414.45
 20
1837.36
 30
0.000000
  70
    32
  0
VERTEX
  8
0
  5
E5E
 10
3414.45
 20
1837.34
 30
0.000000
  70
    32
  0
VERTEX
  8
0
  5
E5F
 10
3414.45
 20
1837.33
 30
0.000000
  70
    32
  0
VERTEX
  8
0
  5
E60
 10
3414.46
 20
1837.31
 30
0.000000
  70
    32
  0
VERTEX
  8
0
  5
E61
 10
3414.46
 20
1837.30
 30
0.000000
  70
    32
  0
VERTEX
  8
0
  5
E62
 10
3414.46
 20
1837.28
 30
0.000000
  70
    32
  0
VERTEX
  8
0
  5
E63
 10
3414.46
 20
1837.27
 30
0.000000
  70
    32
  0
VERTEX
  8
0
  5
E64
 10
3414.46
 20
1837.25
 30
0.000000
  70
    32
  0
VERTEX
  8
0
  5
E65
 10
3414.46
 20
1837.24
 30
0.000000
  70
    32
  0
VERTEX
  8
0
  5
E66
 10
3414.46
 20
1837.23
 30
0.000000
  70
    32
  0
VERTEX
  8
0
  5
E67
 10
3414.46
 20
1837.21
 30
0.000000
  70
    32
  0
VERTEX
  8
0
  5
E68
 10
3414.46
 20
1837.20
 30
0.000000
  70
    32
  0
VERTEX
  8
0
  5
E69
 10
3414.46
 20
1837.18
 30
0.000000
  70
    32
  0
VERTEX
  8
0
  5
E6A
 10
3414.46
 20
1837.17
 30
0.000000
  70
    32
  0
VERTEX
  8
0
  5
E6B
 10
3414.46
 20
1837.15
 30
0.000000
  70
    32
  0
VERTEX
  8
0
  5
E6C
 10
3414.47
 20
1837.14
 30
0.000000
  70
    32
  0
VERTEX
  8
0
  5
E6D
 10
3414.47
 20
1837.12
 30
0.000000
  70
    32
  0
VERTEX
  8
0
  5
E6E
 10
3414.47
 20
1837.11
 30
0.000000
  70
    32
  0
VERTEX
  8
0
  5
E6F
 10
3414.47
 20
1837.10
 30
0.000000
  70
    32
  0
VERTEX
  8
0
  5
E70
 10
3414.47
 20
1837.08
 30
0.000000
  70
    32
  0
VERTEX
  8
0
  5
E71
 10
3414.47
 20
1837.07
 30
0.000000
  70
    32
  0
VERTEX
  8
0
  5
E72
 10
3414.47
 20
1837.05
 30
0.000000
  70
    32
  0
VERTEX
  8
0
  5
E73
 10
3414.47
 20
1837.04
 30
0.000000
  70
    32
  0
VERTEX
  8
0
  5
E74
 10
3414.47
 20
1837.02
 30
0.000000
  70
    32
  0
VERTEX
  8
0
  5
E75
 10
3414.47
 20
1837.01
 30
0.000000
  70
    32
  0
VERTEX
  8
0
  5
E76
 10
3414.47
 20
1836.99
 30
0.000000
  70
    32
  0
VERTEX
  8
0
  5
E77
 10
3414.47
 20
1836.98
 30
0.000000
  70
    32
  0
VERTEX
  8
0
  5
E78
 10
3414.48
 20
1836.97
 30
0.000000
  70
    32
  0
VERTEX
  8
0
  5
E79
 10
3414.48
 20
1836.95
 30
0.000000
  70
    32
  0
VERTEX
  8
0
  5
E7A
 10
3414.48
 20
1836.94
 30
0.000000
  70
    32
  0
VERTEX
  8
0
  5
E7B
 10
3414.48
 20
1836.92
 30
0.000000
  70
    32
  0
VERTEX
  8
0
  5
E7C
 10
3414.48
 20
1836.91
 30
0.000000
  70
    32
  0
VERTEX
  8
0
  5
E7D
 10
3414.48
 20
1836.89
 30
0.000000
  70
    32
  0
VERTEX
  8
0
  5
E7E
 10
3414.48
 20
1836.88
 30
0.000000
  70
    32
  0
VERTEX
  8
0
  5
E7F
 10
3414.48
 20
1836.86
 30
0.000000
  70
    32
  0
VERTEX
  8
0
  5
E80
 10
3414.48
 20
1836.85
 30
0.000000
  70
    32
  0
VERTEX
  8
0
  5
E81
 10
3414.48
 20
1836.84
 30
0.000000
  70
    32
  0
VERTEX
  8
0
  5
E82
 10
3414.48
 20
1836.82
 30
0.000000
  70
    32
  0
VERTEX
  8
0
  5
E83
 10
3414.48
 20
1836.81
 30
0.000000
  70
    32
  0
VERTEX
  8
0
  5
E84
 10
3414.49
 20
1836.79
 30
0.000000
  70
    32
  0
VERTEX
  8
0
  5
E85
 10
3414.49
 20
1836.78
 30
0.000000
  70
    32
  0
VERTEX
  8
0
  5
E86
 10
3414.49
 20
1836.76
 30
0.000000
  70
    32
  0
VERTEX
  8
0
  5
E87
 10
3414.49
 20
1836.75
 30
0.000000
  70
    32
  0
VERTEX
  8
0
  5
E88
 10
3414.49
 20
1836.73
 30
0.000000
  70
    32
  0
VERTEX
  8
0
  5
E89
 10
3414.49
 20
1836.72
 30
0.000000
  70
    32
  0
VERTEX
  8
0
  5
E8A
 10
3414.49
 20
1836.71
 30
0.000000
  70
    32
  0
VERTEX
  8
0
  5
E8B
 10
3414.49
 20
1836.69
 30
0.000000
  70
    32
  0
VERTEX
  8
0
  5
E8C
 10
3414.49
 20
1836.68
 30
0.000000
  70
    32
  0
VERTEX
  8
0
  5
E8D
 10
3414.49
 20
1836.66
 30
0.000000
  70
    32
  0
VERTEX
  8
0
  5
E8E
 10
3414.49
 20
1836.65
 30
0.000000
  70
    32
  0
VERTEX
  8
0
  5
E8F
 10
3414.49
 20
1836.63
 30
0.000000
  70
    32
  0
VERTEX
  8
0
  5
E90
 10
3414.50
 20
1836.62
 30
0.000000
  70
    32
  0
VERTEX
  8
0
  5
E91
 10
3414.50
 20
1836.60
 30
0.000000
  70
    32
  0
VERTEX
  8
0
  5
E92
 10
3414.50
 20
1836.59
 30
0.000000
  70
    32
  0
VERTEX
  8
0
  5
E93
 10
3414.50
 20
1836.58
 30
0.000000
  70
    32
  0
VERTEX
  8
0
  5
E94
 10
3414.50
 20
1836.56
 30
0.000000
  70
    32
  0
VERTEX
  8
0
  5
E95
 10
3414.50
 20
1836.55
 30
0.000000
  70
    32
  0
VERTEX
  8
0
  5
E96
 10
3414.50
 20
1836.53
 30
0.000000
  70
    32
  0
VERTEX
  8
0
  5
E97
 10
3414.50
 20
1836.52
 30
0.000000
  70
    32
  0
VERTEX
  8
0
  5
E98
 10
3414.50
 20
1836.50
 30
0.000000
  70
    32
  0
VERTEX
  8
0
  5
E99
 10
3414.50
 20
1836.49
 30
0.000000
  70
    32
  0
VERTEX
  8
0
  5
E9A
 10
3414.50
 20
1836.47
 30
0.000000
  70
    32
  0
VERTEX
  8
0
  5
E9B
 10
3414.50
 20
1836.46
 30
0.000000
  70
    32
  0
VERTEX
  8
0
  5
E9C
 10
3414.51
 20
1836.45
 30
0.000000
  70
    32
  0
VERTEX
  8
0
  5
E9D
 10
3414.51
 20
1836.43
 30
0.000000
  70
    32
  0
VERTEX
  8
0
  5
E9E
 10
3414.51
 20
1836.42
 30
0.000000
  70
    32
  0
VERTEX
  8
0
  5
E9F
 10
3414.51
 20
1836.40
 30
0.000000
  70
    32
  0
VERTEX
  8
0
  5
EA0
 10
3414.51
 20
1836.39
 30
0.000000
  70
    32
  0
VERTEX
  8
0
  5
EA1
 10
3414.51
 20
1836.37
 30
0.000000
  70
    32
  0
VERTEX
  8
0
  5
EA2
 10
3414.51
 20
1836.36
 30
0.000000
  70
    32
  0
VERTEX
  8
0
  5
EA3
 10
3414.51
 20
1836.34
 30
0.000000
  70
    32
  0
VERTEX
  8
0
  5
EA4
 10
3414.51
 20
1836.33
 30
0.000000
  70
    32
  0
VERTEX
  8
0
  5
EA5
 10
3414.51
 20
1836.32
 30
0.000000
  70
    32
  0
VERTEX
  8
0
  5
EA6
 10
3414.51
 20
1836.30
 30
0.000000
  70
    32
  0
VERTEX
  8
0
  5
EA7
 10
3414.52
 20
1836.29
 30
0.000000
  70
    32
  0
VERTEX
  8
0
  5
EA8
 10
3414.52
 20
1836.27
 30
0.000000
  70
    32
  0
VERTEX
  8
0
  5
EA9
 10
3414.52
 20
1836.26
 30
0.000000
  70
    32
  0
VERTEX
  8
0
  5
EAA
 10
3414.52
 20
1836.24
 30
0.000000
  70
    32
  0
VERTEX
  8
0
  5
EAB
 10
3414.52
 20
1836.23
 30
0.000000
  70
    32
  0
VERTEX
  8
0
  5
EAC
 10
3414.52
 20
1836.21
 30
0.000000
  70
    32
  0
VERTEX
  8
0
  5
EAD
 10
3414.52
 20
1836.20
 30
0.000000
  70
    32
  0
VERTEX
  8
0
  5
EAE
 10
3414.52
 20
1836.19
 30
0.000000
  70
    32
  0
VERTEX
  8
0
  5
EAF
 10
3414.52
 20
1836.17
 30
0.000000
  70
    32
  0
VERTEX
  8
0
  5
EB0
 10
3414.52
 20
1836.16
 30
0.000000
  70
    32
  0
VERTEX
  8
0
  5
EB1
 10
3414.52
 20
1836.14
 30
0.000000
  70
    32
  0
VERTEX
  8
0
  5
EB2
 10
3414.52
 20
1836.13
 30
0.000000
  70
    32
  0
VERTEX
  8
0
  5
EB3
 10
3414.53
 20
1836.11
 30
0.000000
  70
    32
  0
VERTEX
  8
0
  5
EB4
 10
3414.53
 20
1836.10
 30
0.000000
  70
    32
  0
VERTEX
  8
0
  5
EB5
 10
3414.53
 20
1836.08
 30
0.000000
  70
    32
  0
VERTEX
  8
0
  5
EB6
 10
3414.53
 20
1836.07
 30
0.000000
  70
    32
  0
VERTEX
  8
0
  5
EB7
 10
3414.53
 20
1836.06
 30
0.000000
  70
    32
  0
VERTEX
  8
0
  5
EB8
 10
3414.53
 20
1836.04
 30
0.000000
  70
    32
  0
VERTEX
  8
0
  5
EB9
 10
3414.53
 20
1836.03
 30
0.000000
  70
    32
  0
VERTEX
  8
0
  5
EBA
 10
3414.53
 20
1836.01
 30
0.000000
  70
    32
  0
VERTEX
  8
0
  5
EBB
 10
3414.53
 20
1836.00
 30
0.000000
  70
    32
  0
VERTEX
  8
0
  5
EBC
 10
3414.53
 20
1835.98
 30
0.000000
  70
    32
  0
VERTEX
  8
0
  5
EBD
 10
3414.53
 20
1835.97
 30
0.000000
  70
    32
  0
VERTEX
  8
0
  5
EBE
 10
3414.54
 20
1835.96
 30
0.000000
  70
    32
  0
VERTEX
  8
0
  5
EBF
 10
3414.54
 20
1835.94
 30
0.000000
  70
    32
  0
VERTEX
  8
0
  5
EC0
 10
3414.54
 20
1835.93
 30
0.000000
  70
    32
  0
VERTEX
  8
0
  5
EC1
 10
3414.54
 20
1835.91
 30
0.000000
  70
    32
  0
VERTEX
  8
0
  5
EC2
 10
3414.54
 20
1835.90
 30
0.000000
  70
    32
  0
VERTEX
  8
0
  5
EC3
 10
3414.54
 20
1835.88
 30
0.000000
  70
    32
  0
VERTEX
  8
0
  5
EC4
 10
3414.54
 20
1835.87
 30
0.000000
  70
    32
  0
VERTEX
  8
0
  5
EC5
 10
3414.54
 20
1835.85
 30
0.000000
  70
    32
  0
VERTEX
  8
0
  5
EC6
 10
3414.54
 20
1835.84
 30
0.000000
  70
    32
  0
VERTEX
  8
0
  5
EC7
 10
3414.54
 20
1835.83
 30
0.000000
  70
    32
  0
VERTEX
  8
0
  5
EC8
 10
3414.54
 20
1835.81
 30
0.000000
  70
    32
  0
VERTEX
  8
0
  5
EC9
 10
3414.55
 20
1835.80
 30
0.000000
  70
    32
  0
VERTEX
  8
0
  5
ECA
 10
3414.55
 20
1835.78
 30
0.000000
  70
    32
  0
VERTEX
  8
0
  5
ECB
 10
3414.55
 20
1835.77
 30
0.000000
  70
    32
  0
VERTEX
  8
0
  5
ECC
 10
3414.55
 20
1835.75
 30
0.000000
  70
    32
  0
VERTEX
  8
0
  5
ECD
 10
3414.55
 20
1835.74
 30
0.000000
  70
    32
  0
VERTEX
  8
0
  5
ECE
 10
3414.55
 20
1835.72
 30
0.000000
  70
    32
  0
VERTEX
  8
0
  5
ECF
 10
3414.55
 20
1835.71
 30
0.000000
  70
    32
  0
VERTEX
  8
0
  5
ED0
 10
3414.55
 20
1835.70
 30
0.000000
  70
    32
  0
VERTEX
  8
0
  5
ED1
 10
3414.55
 20
1835.68
 30
0.000000
  70
    32
  0
VERTEX
  8
0
  5
ED2
 10
3414.55
 20
1835.67
 30
0.000000
  70
    32
  0
VERTEX
  8
0
  5
ED3
 10
3414.55
 20
1835.65
 30
0.000000
  70
    32
  0
VERTEX
  8
0
  5
ED4
 10
3414.56
 20
1835.64
 30
0.000000
  70
    32
  0
VERTEX
  8
0
  5
ED5
 10
3414.56
 20
1835.62
 30
0.000000
  70
    32
  0
VERTEX
  8
0
  5
ED6
 10
3414.56
 20
1835.61
 30
0.000000
  70
    32
  0
VERTEX
  8
0
  5
ED7
 10
3414.56
 20
1835.59
 30
0.000000
  70
    32
  0
VERTEX
  8
0
  5
ED8
 10
3414.56
 20
1835.58
 30
0.000000
  70
    32
  0
VERTEX
  8
0
  5
ED9
 10
3414.56
 20
1835.57
 30
0.000000
  70
    32
  0
VERTEX
  8
0
  5
EDA
 10
3414.56
 20
1835.55
 30
0.000000
  70
    32
  0
VERTEX
  8
0
  5
EDB
 10
3414.56
 20
1835.54
 30
0.000000
  70
    32
  0
VERTEX
  8
0
  5
EDC
 10
3414.56
 20
1835.52
 30
0.000000
  70
    32
  0
VERTEX
  8
0
  5
EDD
 10
3414.56
 20
1835.51
 30
0.000000
  70
    32
  0
VERTEX
  8
0
  5
EDE
 10
3414.56
 20
1835.49
 30
0.000000
  70
    32
  0
VERTEX
  8
0
  5
EDF
 10
3414.57
 20
1835.48
 30
0.000000
  70
    32
  0
VERTEX
  8
0
  5
EE0
 10
3414.57
 20
1835.46
 30
0.000000
  70
    32
  0
VERTEX
  8
0
  5
EE1
 10
3414.57
 20
1835.45
 30
0.000000
  70
    32
  0
VERTEX
  8
0
  5
EE2
 10
3414.57
 20
1835.44
 30
0.000000
  70
    32
  0
VERTEX
  8
0
  5
EE3
 10
3414.57
 20
1835.42
 30
0.000000
  70
    32
  0
VERTEX
  8
0
  5
EE4
 10
3414.57
 20
1835.41
 30
0.000000
  70
    32
  0
VERTEX
  8
0
  5
EE5
 10
3414.57
 20
1835.39
 30
0.000000
  70
    32
  0
VERTEX
  8
0
  5
EE6
 10
3414.57
 20
1835.38
 30
0.000000
  70
    32
  0
VERTEX
  8
0
  5
EE7
 10
3414.57
 20
1835.36
 30
0.000000
  70
    32
  0
VERTEX
  8
0
  5
EE8
 10
3414.57
 20
1835.35
 30
0.000000
  70
    32
  0
VERTEX
  8
0
  5
EE9
 10
3414.58
 20
1835.33
 30
0.000000
  70
    32
  0
VERTEX
  8
0
  5
EEA
 10
3414.58
 20
1835.32
 30
0.000000
  70
    32
  0
VERTEX
  8
0
  5
EEB
 10
3414.58
 20
1835.31
 30
0.000000
  70
    32
  0
VERTEX
  8
0
  5
EEC
 10
3414.58
 20
1835.29
 30
0.000000
  70
    32
  0
VERTEX
  8
0
  5
EED
 10
3414.58
 20
1835.28
 30
0.000000
  70
    32
  0
VERTEX
  8
0
  5
EEE
 10
3414.58
 20
1835.26
 30
0.000000
  70
    32
  0
VERTEX
  8
0
  5
EEF
 10
3414.58
 20
1835.25
 30
0.000000
  70
    32
  0
VERTEX
  8
0
  5
EF0
 10
3414.58
 20
1835.23
 30
0.000000
  70
    32
  0
VERTEX
  8
0
  5
EF1
 10
3414.58
 20
1835.22
 30
0.000000
  70
    32
  0
VERTEX
  8
0
  5
EF2
 10
3414.58
 20
1835.20
 30
0.000000
  70
    32
  0
VERTEX
  8
0
  5
EF3
 10
3414.58
 20
1835.19
 30
0.000000
  70
    32
  0
VERTEX
  8
0
  5
EF4
 10
3414.59
 20
1835.18
 30
0.000000
  70
    32
  0
VERTEX
  8
0
  5
EF5
 10
3414.59
 20
1835.16
 30
0.000000
  70
    32
  0
VERTEX
  8
0
  5
EF6
 10
3414.59
 20
1835.15
 30
0.000000
  70
    32
  0
VERTEX
  8
0
  5
EF7
 10
3414.59
 20
1835.13
 30
0.000000
  70
    32
  0
VERTEX
  8
0
  5
EF8
 10
3414.59
 20
1835.12
 30
0.000000
  70
    32
  0
VERTEX
  8
0
  5
EF9
 10
3414.59
 20
1835.10
 30
0.000000
  70
    32
  0
VERTEX
  8
0
  5
EFA
 10
3414.59
 20
1835.09
 30
0.000000
  70
    32
  0
VERTEX
  8
0
  5
EFB
 10
3414.59
 20
1835.07
 30
0.000000
  70
    32
  0
VERTEX
  8
0
  5
EFC
 10
3414.59
 20
1835.06
 30
0.000000
  70
    32
  0
VERTEX
  8
0
  5
EFD
 10
3414.59
 20
1835.05
 30
0.000000
  70
    32
  0
VERTEX
  8
0
  5
EFE
 10
3414.60
 20
1835.03
 30
0.000000
  70
    32
  0
VERTEX
  8
0
  5
EFF
 10
3414.60
 20
1835.02
 30
0.000000
  70
    32
  0
VERTEX
  8
0
  5
F00
 10
3414.60
 20
1835.00
 30
0.000000
  70
    32
  0
VERTEX
  8
0
  5
F01
 10
3414.60
 20
1834.99
 30
0.000000
  70
    32
  0
VERTEX
  8
0
  5
F02
 10
3414.60
 20
1834.97
 30
0.000000
  70
    32
  0
VERTEX
  8
0
  5
F03
 10
3414.60
 20
1834.96
 30
0.000000
  70
    32
  0
VERTEX
  8
0
  5
F04
 10
3414.60
 20
1834.94
 30
0.000000
  70
    32
  0
VERTEX
  8
0
  5
F05
 10
3414.60
 20
1834.93
 30
0.000000
  70
    32
  0
VERTEX
  8
0
  5
F06
 10
3414.60
 20
1834.92
 30
0.000000
  70
    32
  0
VERTEX
  8
0
  5
F07
 10
3414.60
 20
1834.90
 30
0.000000
  70
    32
  0
VERTEX
  8
0
  5
F08
 10
3414.61
 20
1834.89
 30
0.000000
  70
    32
  0
VERTEX
  8
0
  5
F09
 10
3414.61
 20
1834.87
 30
0.000000
  70
    32
  0
VERTEX
  8
0
  5
F0A
 10
3414.61
 20
1834.86
 30
0.000000
  70
    32
  0
VERTEX
  8
0
  5
F0B
 10
3414.61
 20
1834.84
 30
0.000000
  70
    32
  0
VERTEX
  8
0
  5
F0C
 10
3414.61
 20
1834.83
 30
0.000000
  70
    32
  0
VERTEX
  8
0
  5
F0D
 10
3414.61
 20
1834.81
 30
0.000000
  70
    32
  0
VERTEX
  8
0
  5
F0E
 10
3414.61
 20
1834.80
 30
0.000000
  70
    32
  0
VERTEX
  8
0
  5
F0F
 10
3414.61
 20
1834.79
 30
0.000000
  70
    32
  0
VERTEX
  8
0
  5
F10
 10
3414.61
 20
1834.77
 30
0.000000
  70
    32
  0
VERTEX
  8
0
  5
F11
 10
3414.61
 20
1834.76
 30
0.000000
  70
    32
  0
VERTEX
  8
0
  5
F12
 10
3414.62
 20
1834.74
 30
0.000000
  70
    32
  0
VERTEX
  8
0
  5
F13
 10
3414.62
 20
1834.73
 30
0.000000
  70
    32
  0
VERTEX
  8
0
  5
F14
 10
3414.62
 20
1834.71
 30
0.000000
  70
    32
  0
VERTEX
  8
0
  5
F15
 10
3414.62
 20
1834.70
 30
0.000000
  70
    32
  0
VERTEX
  8
0
  5
F16
 10
3414.62
 20
1834.68
 30
0.000000
  70
    32
  0
VERTEX
  8
0
  5
F17
 10
3414.62
 20
1834.67
 30
0.000000
  70
    32
  0
VERTEX
  8
0
  5
F18
 10
3414.62
 20
1834.66
 30
0.000000
  70
    32
  0
VERTEX
  8
0
  5
F19
 10
3414.62
 20
1834.64
 30
0.000000
  70
    32
  0
VERTEX
  8
0
  5
F1A
 10
3414.62
 20
1834.63
 30
0.000000
  70
    32
  0
VERTEX
  8
0
  5
F1B
 10
3414.62
 20
1834.61
 30
0.000000
  70
    32
  0
VERTEX
  8
0
  5
F1C
 10
3414.63
 20
1834.60
 30
0.000000
  70
    32
  0
VERTEX
  8
0
  5
F1D
 10
3414.63
 20
1834.58
 30
0.000000
  70
    32
  0
VERTEX
  8
0
  5
F1E
 10
3414.63
 20
1834.57
 30
0.000000
  70
    32
  0
VERTEX
  8
0
  5
F1F
 10
3414.63
 20
1834.55
 30
0.000000
  70
    32
  0
VERTEX
  8
0
  5
F20
 10
3414.63
 20
1834.54
 30
0.000000
  70
    32
  0
VERTEX
  8
0
  5
F21
 10
3414.63
 20
1834.53
 30
0.000000
  70
    32
  0
VERTEX
  8
0
  5
F22
 10
3414.63
 20
1834.51
 30
0.000000
  70
    32
  0
VERTEX
  8
0
  5
F23
 10
3414.63
 20
1834.50
 30
0.000000
  70
    32
  0
VERTEX
  8
0
  5
F24
 10
3414.63
 20
1834.48
 30
0.000000
  70
    32
  0
VERTEX
  8
0
  5
F25
 10
3414.63
 20
1834.47
 30
0.000000
  70
    32
  0
VERTEX
  8
0
  5
F26
 10
3414.64
 20
1834.45
 30
0.000000
  70
    32
  0
VERTEX
  8
0
  5
F27
 10
3414.64
 20
1834.44
 30
0.000000
  70
    32
  0
VERTEX
  8
0
  5
F28
 10
3414.64
 20
1834.42
 30
0.000000
  70
    32
  0
VERTEX
  8
0
  5
F29
 10
3414.64
 20
1834.41
 30
0.000000
  70
    32
  0
VERTEX
  8
0
  5
F2A
 10
3414.64
 20
1834.40
 30
0.000000
  70
    32
  0
VERTEX
  8
0
  5
F2B
 10
3414.64
 20
1834.38
 30
0.000000
  70
    32
  0
VERTEX
  8
0
  5
F2C
 10
3414.64
 20
1834.37
 30
0.000000
  70
    32
  0
VERTEX
  8
0
  5
F2D
 10
3414.64
 20
1834.35
 30
0.000000
  70
    32
  0
VERTEX
  8
0
  5
F2E
 10
3414.64
 20
1834.34
 30
0.000000
  70
    32
  0
VERTEX
  8
0
  5
F2F
 10
3414.64
 20
1834.32
 30
0.000000
  70
    32
  0
VERTEX
  8
0
  5
F30
 10
3414.65
 20
1834.31
 30
0.000000
  70
    32
  0
VERTEX
  8
0
  5
F31
 10
3414.65
 20
1834.29
 30
0.000000
  70
    32
  0
VERTEX
  8
0
  5
F32
 10
3414.65
 20
1834.28
 30
0.000000
  70
    32
  0
VERTEX
  8
0
  5
F33
 10
3414.65
 20
1834.27
 30
0.000000
  70
    32
  0
VERTEX
  8
0
  5
F34
 10
3414.65
 20
1834.25
 30
0.000000
  70
    32
  0
VERTEX
  8
0
  5
F35
 10
3414.65
 20
1834.24
 30
0.000000
  70
    32
  0
VERTEX
  8
0
  5
F36
 10
3414.65
 20
1834.22
 30
0.000000
  70
    32
  0
VERTEX
  8
0
  5
F37
 10
3414.65
 20
1834.21
 30
0.000000
  70
    32
  0
VERTEX
  8
0
  5
F38
 10
3414.65
 20
1834.19
 30
0.000000
  70
    32
  0
VERTEX
  8
0
  5
F39
 10
3414.65
 20
1834.18
 30
0.000000
  70
    32
  0
VERTEX
  8
0
  5
F3A
 10
3414.66
 20
1834.16
 30
0.000000
  70
    32
  0
VERTEX
  8
0
  5
F3B
 10
3414.66
 20
1834.15
 30
0.000000
  70
    32
  0
VERTEX
  8
0
  5
F3C
 10
3414.66
 20
1834.14
 30
0.000000
  70
    32
  0
VERTEX
  8
0
  5
F3D
 10
3414.66
 20
1834.12
 30
0.000000
  70
    32
  0
VERTEX
  8
0
  5
F3E
 10
3414.66
 20
1834.11
 30
0.000000
  70
    32
  0
VERTEX
  8
0
  5
F3F
 10
3414.66
 20
1834.09
 30
0.000000
  70
    32
  0
VERTEX
  8
0
  5
F40
 10
3414.66
 20
1834.08
 30
0.000000
  70
    32
  0
VERTEX
  8
0
  5
F41
 10
3414.66
 20
1834.06
 30
0.000000
  70
    32
  0
VERTEX
  8
0
  5
F42
 10
3414.66
 20
1834.05
 30
0.000000
  70
    32
  0
VERTEX
  8
0
  5
F43
 10
3414.67
 20
1834.03
 30
0.000000
  70
    32
  0
VERTEX
  8
0
  5
F44
 10
3414.67
 20
1834.02
 30
0.000000
  70
    32
  0
VERTEX
  8
0
  5
F45
 10
3414.67
 20
1834.01
 30
0.000000
  70
    32
  0
VERTEX
  8
0
  5
F46
 10
3414.67
 20
1833.99
 30
0.000000
  70
    32
  0
VERTEX
  8
0
  5
F47
 10
3414.67
 20
1833.98
 30
0.000000
  70
    32
  0
VERTEX
  8
0
  5
F48
 10
3414.67
 20
1833.96
 30
0.000000
  70
    32
  0
VERTEX
  8
0
  5
F49
 10
3414.67
 20
1833.95
 30
0.000000
  70
    32
  0
VERTEX
  8
0
  5
F4A
 10
3414.67
 20
1833.93
 30
0.000000
  70
    32
  0
VERTEX
  8
0
  5
F4B
 10
3414.67
 20
1833.92
 30
0.000000
  70
    32
  0
VERTEX
  8
0
  5
F4C
 10
3414.67
 20
1833.90
 30
0.000000
  70
    32
  0
VERTEX
  8
0
  5
F4D
 10
3414.68
 20
1833.89
 30
0.000000
  70
    32
  0
VERTEX
  8
0
  5
F4E
 10
3414.68
 20
1833.88
 30
0.000000
  70
    32
  0
VERTEX
  8
0
  5
F4F
 10
3414.68
 20
1833.86
 30
0.000000
  70
    32
  0
VERTEX
  8
0
  5
F50
 10
3414.68
 20
1833.85
 30
0.000000
  70
    32
  0
VERTEX
  8
0
  5
F51
 10
3414.68
 20
1833.83
 30
0.000000
  70
    32
  0
VERTEX
  8
0
  5
F52
 10
3414.68
 20
1833.82
 30
0.000000
  70
    32
  0
VERTEX
  8
0
  5
F53
 10
3414.68
 20
1833.80
 30
0.000000
  70
    32
  0
VERTEX
  8
0
  5
F54
 10
3414.68
 20
1833.79
 30
0.000000
  70
    32
  0
VERTEX
  8
0
  5
F55
 10
3414.68
 20
1833.77
 30
0.000000
  70
    32
  0
VERTEX
  8
0
  5
F56
 10
3414.69
 20
1833.76
 30
0.000000
  70
    32
  0
VERTEX
  8
0
  5
F57
 10
3414.69
 20
1833.75
 30
0.000000
  70
    32
  0
VERTEX
  8
0
  5
F58
 10
3414.69
 20
1833.73
 30
0.000000
  70
    32
  0
VERTEX
  8
0
  5
F59
 10
3414.69
 20
1833.72
 30
0.000000
  70
    32
  0
VERTEX
  8
0
  5
F5A
 10
3414.69
 20
1833.70
 30
0.000000
  70
    32
  0
VERTEX
  8
0
  5
F5B
 10
3414.69
 20
1833.69
 30
0.000000
  70
    32
  0
VERTEX
  8
0
  5
F5C
 10
3414.69
 20
1833.67
 30
0.000000
  70
    32
  0
VERTEX
  8
0
  5
F5D
 10
3414.69
 20
1833.66
 30
0.000000
  70
    32
  0
VERTEX
  8
0
  5
F5E
 10
3414.69
 20
1833.64
 30
0.000000
  70
    32
  0
VERTEX
  8
0
  5
F5F
 10
3414.70
 20
1833.63
 30
0.000000
  70
    32
  0
VERTEX
  8
0
  5
F60
 10
3414.70
 20
1833.62
 30
0.000000
  70
    32
  0
VERTEX
  8
0
  5
F61
 10
3414.70
 20
1833.60
 30
0.000000
  70
    32
  0
VERTEX
  8
0
  5
F62
 10
3414.70
 20
1833.59
 30
0.000000
  70
    32
  0
VERTEX
  8
0
  5
F63
 10
3414.70
 20
1833.57
 30
0.000000
  70
    32
  0
VERTEX
  8
0
  5
F64
 10
3414.70
 20
1833.56
 30
0.000000
  70
    32
  0
VERTEX
  8
0
  5
F65
 10
3414.70
 20
1833.54
 30
0.000000
  70
    32
  0
VERTEX
  8
0
  5
F66
 10
3414.70
 20
1833.53
 30
0.000000
  70
    32
  0
VERTEX
  8
0
  5
F67
 10
3414.70
 20
1833.51
 30
0.000000
  70
    32
  0
VERTEX
  8
0
  5
F68
 10
3414.70
 20
1833.50
 30
0.000000
  70
    32
  0
VERTEX
  8
0
  5
F69
 10
3414.71
 20
1833.49
 30
0.000000
  70
    32
  0
VERTEX
  8
0
  5
F6A
 10
3414.71
 20
1833.47
 30
0.000000
  70
    32
  0
VERTEX
  8
0
  5
F6B
 10
3414.71
 20
1833.46
 30
0.000000
  70
    32
  0
VERTEX
  8
0
  5
F6C
 10
3414.71
 20
1833.44
 30
0.000000
  70
    32
  0
VERTEX
  8
0
  5
F6D
 10
3414.71
 20
1833.43
 30
0.000000
  70
    32
  0
VERTEX
  8
0
  5
F6E
 10
3414.71
 20
1833.41
 30
0.000000
  70
    32
  0
VERTEX
  8
0
  5
F6F
 10
3414.71
 20
1833.40
 30
0.000000
  70
    32
  0
VERTEX
  8
0
  5
F70
 10
3414.71
 20
1833.38
 30
0.000000
  70
    32
  0
VERTEX
  8
0
  5
F71
 10
3414.71
 20
1833.37
 30
0.000000
  70
    32
  0
VERTEX
  8
0
  5
F72
 10
3414.72
 20
1833.36
 30
0.000000
  70
    32
  0
VERTEX
  8
0
  5
F73
 10
3414.72
 20
1833.34
 30
0.000000
  70
    32
  0
VERTEX
  8
0
  5
F74
 10
3414.72
 20
1833.33
 30
0.000000
  70
    32
  0
VERTEX
  8
0
  5
F75
 10
3414.72
 20
1833.31
 30
0.000000
  70
    32
  0
VERTEX
  8
0
  5
F76
 10
3414.72
 20
1833.30
 30
0.000000
  70
    32
  0
VERTEX
  8
0
  5
F77
 10
3414.72
 20
1833.28
 30
0.000000
  70
    32
  0
VERTEX
  8
0
  5
F78
 10
3414.72
 20
1833.27
 30
0.000000
  70
    32
  0
VERTEX
  8
0
  5
F79
 10
3414.72
 20
1833.25
 30
0.000000
  70
    32
  0
VERTEX
  8
0
  5
F7A
 10
3414.73
 20
1833.24
 30
0.000000
  70
    32
  0
VERTEX
  8
0
  5
F7B
 10
3414.73
 20
1833.23
 30
0.000000
  70
    32
  0
VERTEX
  8
0
  5
F7C
 10
3414.73
 20
1833.21
 30
0.000000
  70
    32
  0
VERTEX
  8
0
  5
F7D
 10
3414.73
 20
1833.20
 30
0.000000
  70
    32
  0
VERTEX
  8
0
  5
F7E
 10
3414.73
 20
1833.18
 30
0.000000
  70
    32
  0
VERTEX
  8
0
  5
F7F
 10
3414.73
 20
1833.17
 30
0.000000
  70
    32
  0
VERTEX
  8
0
  5
F80
 10
3414.73
 20
1833.15
 30
0.000000
  70
    32
  0
VERTEX
  8
0
  5
F81
 10
3414.73
 20
1833.14
 30
0.000000
  70
    32
  0
VERTEX
  8
0
  5
F82
 10
3414.73
 20
1833.12
 30
0.000000
  70
    32
  0
VERTEX
  8
0
  5
F83
 10
3414.74
 20
1833.11
 30
0.000000
  70
    32
  0
VERTEX
  8
0
  5
F84
 10
3414.74
 20
1833.10
 30
0.000000
  70
    32
  0
VERTEX
  8
0
  5
F85
 10
3414.74
 20
1833.08
 30
0.000000
  70
    32
  0
VERTEX
  8
0
  5
F86
 10
3414.74
 20
1833.07
 30
0.000000
  70
    32
  0
VERTEX
  8
0
  5
F87
 10
3414.74
 20
1833.05
 30
0.000000
  70
    32
  0
VERTEX
  8
0
  5
F88
 10
3414.74
 20
1833.04
 30
0.000000
  70
    32
  0
VERTEX
  8
0
  5
F89
 10
3414.74
 20
1833.02
 30
0.000000
  70
    32
  0
VERTEX
  8
0
  5
F8A
 10
3414.74
 20
1833.01
 30
0.000000
  70
    32
  0
VERTEX
  8
0
  5
F8B
 10
3414.74
 20
1832.99
 30
0.000000
  70
    32
  0
VERTEX
  8
0
  5
F8C
 10
3414.75
 20
1832.98
 30
0.000000
  70
    32
  0
VERTEX
  8
0
  5
F8D
 10
3414.75
 20
1832.97
 30
0.000000
  70
    32
  0
VERTEX
  8
0
  5
F8E
 10
3414.75
 20
1832.95
 30
0.000000
  70
    32
  0
VERTEX
  8
0
  5
F8F
 10
3414.75
 20
1832.94
 30
0.000000
  70
    32
  0
VERTEX
  8
0
  5
F90
 10
3414.75
 20
1832.92
 30
0.000000
  70
    32
  0
VERTEX
  8
0
  5
F91
 10
3414.75
 20
1832.91
 30
0.000000
  70
    32
  0
VERTEX
  8
0
  5
F92
 10
3414.75
 20
1832.89
 30
0.000000
  70
    32
  0
VERTEX
  8
0
  5
F93
 10
3414.75
 20
1832.88
 30
0.000000
  70
    32
  0
VERTEX
  8
0
  5
F94
 10
3414.75
 20
1832.86
 30
0.000000
  70
    32
  0
VERTEX
  8
0
  5
F95
 10
3414.76
 20
1832.85
 30
0.000000
  70
    32
  0
VERTEX
  8
0
  5
F96
 10
3414.76
 20
1832.84
 30
0.000000
  70
    32
  0
VERTEX
  8
0
  5
F97
 10
3414.76
 20
1832.82
 30
0.000000
  70
    32
  0
VERTEX
  8
0
  5
F98
 10
3414.76
 20
1832.81
 30
0.000000
  70
    32
  0
VERTEX
  8
0
  5
F99
 10
3414.76
 20
1832.79
 30
0.000000
  70
    32
  0
VERTEX
  8
0
  5
F9A
 10
3414.76
 20
1832.78
 30
0.000000
  70
    32
  0
VERTEX
  8
0
  5
F9B
 10
3414.76
 20
1832.76
 30
0.000000
  70
    32
  0
VERTEX
  8
0
  5
F9C
 10
3414.76
 20
1832.75
 30
0.000000
  70
    32
  0
VERTEX
  8
0
  5
F9D
 10
3414.77
 20
1832.73
 30
0.000000
  70
    32
  0
VERTEX
  8
0
  5
F9E
 10
3414.77
 20
1832.72
 30
0.000000
  70
    32
  0
VERTEX
  8
0
  5
F9F
 10
3414.77
 20
1832.71
 30
0.000000
  70
    32
  0
VERTEX
  8
0
  5
FA0
 10
3414.77
 20
1832.69
 30
0.000000
  70
    32
  0
VERTEX
  8
0
  5
FA1
 10
3414.77
 20
1832.68
 30
0.000000
  70
    32
  0
VERTEX
  8
0
  5
FA2
 10
3414.77
 20
1832.66
 30
0.000000
  70
    32
  0
VERTEX
  8
0
  5
FA3
 10
3414.77
 20
1832.65
 30
0.000000
  70
    32
  0
VERTEX
  8
0
  5
FA4
 10
3414.77
 20
1832.63
 30
0.000000
  70
    32
  0
VERTEX
  8
0
  5
FA5
 10
3414.77
 20
1832.62
 30
0.000000
  70
    32
  0
VERTEX
  8
0
  5
FA6
 10
3414.78
 20
1832.60
 30
0.000000
  70
    32
  0
VERTEX
  8
0
  5
FA7
 10
3414.78
 20
1832.59
 30
0.000000
  70
    32
  0
VERTEX
  8
0
  5
FA8
 10
3414.78
 20
1832.58
 30
0.000000
  70
    32
  0
VERTEX
  8
0
  5
FA9
 10
3414.78
 20
1832.56
 30
0.000000
  70
    32
  0
VERTEX
  8
0
  5
FAA
 10
3414.78
 20
1832.55
 30
0.000000
  70
    32
  0
VERTEX
  8
0
  5
FAB
 10
3414.78
 20
1832.53
 30
0.000000
  70
    32
  0
VERTEX
  8
0
  5
FAC
 10
3414.78
 20
1832.52
 30
0.000000
  70
    32
  0
VERTEX
  8
0
  5
FAD
 10
3414.78
 20
1832.50
 30
0.000000
  70
    32
  0
VERTEX
  8
0
  5
FAE
 10
3414.79
 20
1832.49
 30
0.000000
  70
    32
  0
VERTEX
  8
0
  5
FAF
 10
3414.79
 20
1832.47
 30
0.000000
  70
    32
  0
VERTEX
  8
0
  5
FB0
 10
3414.79
 20
1832.46
 30
0.000000
  70
    32
  0
VERTEX
  8
0
  5
FB1
 10
3414.79
 20
1832.45
 30
0.000000
  70
    32
  0
VERTEX
  8
0
  5
FB2
 10
3414.79
 20
1832.43
 30
0.000000
  70
    32
  0
VERTEX
  8
0
  5
FB3
 10
3414.79
 20
1832.42
 30
0.000000
  70
    32
  0
VERTEX
  8
0
  5
FB4
 10
3414.79
 20
1832.40
 30
0.000000
  70
    32
  0
VERTEX
  8
0
  5
FB5
 10
3414.79
 20
1832.39
 30
0.000000
  70
    32
  0
VERTEX
  8
0
  5
FB6
 10
3414.80
 20
1832.37
 30
0.000000
  70
    32
  0
VERTEX
  8
0
  5
FB7
 10
3414.80
 20
1832.36
 30
0.000000
  70
    32
  0
VERTEX
  8
0
  5
FB8
 10
3414.80
 20
1832.34
 30
0.000000
  70
    32
  0
VERTEX
  8
0
  5
FB9
 10
3414.80
 20
1832.33
 30
0.000000
  70
    32
  0
VERTEX
  8
0
  5
FBA
 10
3414.80
 20
1832.32
 30
0.000000
  70
    32
  0
VERTEX
  8
0
  5
FBB
 10
3414.80
 20
1832.30
 30
0.000000
  70
    32
  0
VERTEX
  8
0
  5
FBC
 10
3414.80
 20
1832.29
 30
0.000000
  70
    32
  0
VERTEX
  8
0
  5
FBD
 10
3414.80
 20
1832.27
 30
0.000000
  70
    32
  0
VERTEX
  8
0
  5
FBE
 10
3414.80
 20
1832.26
 30
0.000000
  70
    32
  0
VERTEX
  8
0
  5
FBF
 10
3414.81
 20
1832.24
 30
0.000000
  70
    32
  0
VERTEX
  8
0
  5
FC0
 10
3414.81
 20
1832.23
 30
0.000000
  70
    32
  0
VERTEX
  8
0
  5
FC1
 10
3414.81
 20
1832.21
 30
0.000000
  70
    32
  0
VERTEX
  8
0
  5
FC2
 10
3414.81
 20
1832.20
 30
0.000000
  70
    32
  0
VERTEX
  8
0
  5
FC3
 10
3414.81
 20
1832.19
 30
0.000000
  70
    32
  0
VERTEX
  8
0
  5
FC4
 10
3414.81
 20
1832.17
 30
0.000000
  70
    32
  0
VERTEX
  8
0
  5
FC5
 10
3414.81
 20
1832.16
 30
0.000000
  70
    32
  0
VERTEX
  8
0
  5
FC6
 10
3414.81
 20
1832.14
 30
0.000000
  70
    32
  0
VERTEX
  8
0
  5
FC7
 10
3414.82
 20
1832.13
 30
0.000000
  70
    32
  0
VERTEX
  8
0
  5
FC8
 10
3414.82
 20
1832.11
 30
0.000000
  70
    32
  0
VERTEX
  8
0
  5
FC9
 10
3414.82
 20
1832.10
 30
0.000000
  70
    32
  0
VERTEX
  8
0
  5
FCA
 10
3414.82
 20
1832.08
 30
0.000000
  70
    32
  0
VERTEX
  8
0
  5
FCB
 10
3414.82
 20
1832.07
 30
0.000000
  70
    32
  0
VERTEX
  8
0
  5
FCC
 10
3414.82
 20
1832.06
 30
0.000000
  70
    32
  0
VERTEX
  8
0
  5
FCD
 10
3414.82
 20
1832.04
 30
0.000000
  70
    32
  0
VERTEX
  8
0
  5
FCE
 10
3414.82
 20
1832.03
 30
0.000000
  70
    32
  0
VERTEX
  8
0
  5
FCF
 10
3414.83
 20
1832.01
 30
0.000000
  70
    32
  0
VERTEX
  8
0
  5
FD0
 10
3414.83
 20
1832.00
 30
0.000000
  70
    32
  0
VERTEX
  8
0
  5
FD1
 10
3414.83
 20
1831.98
 30
0.000000
  70
    32
  0
VERTEX
  8
0
  5
FD2
 10
3414.83
 20
1831.97
 30
0.000000
  70
    32
  0
VERTEX
  8
0
  5
FD3
 10
3414.83
 20
1831.95
 30
0.000000
  70
    32
  0
VERTEX
  8
0
  5
FD4
 10
3414.83
 20
1831.94
 30
0.000000
  70
    32
  0
VERTEX
  8
0
  5
FD5
 10
3414.83
 20
1831.93
 30
0.000000
  70
    32
  0
VERTEX
  8
0
  5
FD6
 10
3414.83
 20
1831.91
 30
0.000000
  70
    32
  0
VERTEX
  8
0
  5
FD7
 10
3414.84
 20
1831.90
 30
0.000000
  70
    32
  0
VERTEX
  8
0
  5
FD8
 10
3414.84
 20
1831.88
 30
0.000000
  70
    32
  0
VERTEX
  8
0
  5
FD9
 10
3414.84
 20
1831.87
 30
0.000000
  70
    32
  0
VERTEX
  8
0
  5
FDA
 10
3414.84
 20
1831.85
 30
0.000000
  70
    32
  0
VERTEX
  8
0
  5
FDB
 10
3414.84
 20
1831.84
 30
0.000000
  70
    32
  0
VERTEX
  8
0
  5
FDC
 10
3414.84
 20
1831.82
 30
0.000000
  70
    32
  0
VERTEX
  8
0
  5
FDD
 10
3414.84
 20
1831.81
 30
0.000000
  70
    32
  0
VERTEX
  8
0
  5
FDE
 10
3414.84
 20
1831.80
 30
0.000000
  70
    32
  0
VERTEX
  8
0
  5
FDF
 10
3414.85
 20
1831.78
 30
0.000000
  70
    32
  0
VERTEX
  8
0
  5
FE0
 10
3414.85
 20
1831.77
 30
0.000000
  70
    32
  0
VERTEX
  8
0
  5
FE1
 10
3414.85
 20
1831.75
 30
0.000000
  70
    32
  0
VERTEX
  8
0
  5
FE2
 10
3414.85
 20
1831.74
 30
0.000000
  70
    32
  0
VERTEX
  8
0
  5
FE3
 10
3414.85
 20
1831.72
 30
0.000000
  70
    32
  0
VERTEX
  8
0
  5
FE4
 10
3414.85
 20
1831.71
 30
0.000000
  70
    32
  0
VERTEX
  8
0
  5
FE5
 10
3414.85
 20
1831.69
 30
0.000000
  70
    32
  0
VERTEX
  8
0
  5
FE6
 10
3414.85
 20
1831.68
 30
0.000000
  70
    32
  0
VERTEX
  8
0
  5
FE7
 10
3414.86
 20
1831.67
 30
0.000000
  70
    32
  0
VERTEX
  8
0
  5
FE8
 10
3414.86
 20
1831.65
 30
0.000000
  70
    32
  0
VERTEX
  8
0
  5
FE9
 10
3414.86
 20
1831.64
 30
0.000000
  70
    32
  0
VERTEX
  8
0
  5
FEA
 10
3414.86
 20
1831.62
 30
0.000000
  70
    32
  0
VERTEX
  8
0
  5
FEB
 10
3414.86
 20
1831.61
 30
0.000000
  70
    32
  0
VERTEX
  8
0
  5
FEC
 10
3414.86
 20
1831.59
 30
0.000000
  70
    32
  0
VERTEX
  8
0
  5
FED
 10
3414.86
 20
1831.58
 30
0.000000
  70
    32
  0
VERTEX
  8
0
  5
FEE
 10
3414.87
 20
1831.56
 30
0.000000
  70
    32
  0
VERTEX
  8
0
  5
FEF
 10
3414.87
 20
1831.55
 30
0.000000
  70
    32
  0
VERTEX
  8
0
  5
FF0
 10
3414.87
 20
1831.54
 30
0.000000
  70
    32
  0
VERTEX
  8
0
  5
FF1
 10
3414.87
 20
1831.52
 30
0.000000
  70
    32
  0
VERTEX
  8
0
  5
FF2
 10
3414.87
 20
1831.51
 30
0.000000
  70
    32
  0
VERTEX
  8
0
  5
FF3
 10
3414.87
 20
1831.49
 30
0.000000
  70
    32
  0
VERTEX
  8
0
  5
FF4
 10
3414.87
 20
1831.48
 30
0.000000
  70
    32
  0
VERTEX
  8
0
  5
FF5
 10
3414.87
 20
1831.46
 30
0.000000
  70
    32
  0
VERTEX
  8
0
  5
FF6
 10
3414.88
 20
1831.45
 30
0.000000
  70
    32
  0
VERTEX
  8
0
  5
FF7
 10
3414.88
 20
1831.43
 30
0.000000
  70
    32
  0
VERTEX
  8
0
  5
FF8
 10
3414.88
 20
1831.42
 30
0.000000
  70
    32
  0
VERTEX
  8
0
  5
FF9
 10
3414.88
 20
1831.41
 30
0.000000
  70
    32
  0
VERTEX
  8
0
  5
FFA
 10
3414.88
 20
1831.39
 30
0.000000
  70
    32
  0
VERTEX
  8
0
  5
FFB
 10
3414.88
 20
1831.38
 30
0.000000
  70
    32
  0
VERTEX
  8
0
  5
FFC
 10
3414.88
 20
1831.36
 30
0.000000
  70
    32
  0
VERTEX
  8
0
  5
FFD
 10
3414.89
 20
1831.35
 30
0.000000
  70
    32
  0
VERTEX
  8
0
  5
FFE
 10
3414.89
 20
1831.33
 30
0.000000
  70
    32
  0
VERTEX
  8
0
  5
FFF
 10
3414.89
 20
1831.32
 30
0.000000
  70
    32
  0
VERTEX
  8
0
  5
1000
 10
3414.89
 20
1831.30
 30
0.000000
  70
    32
  0
VERTEX
  8
0
  5
1001
 10
3414.89
 20
1831.29
 30
0.000000
  70
    32
  0
VERTEX
  8
0
  5
1002
 10
3414.89
 20
1831.28
 30
0.000000
  70
    32
  0
VERTEX
  8
0
  5
1003
 10
3414.89
 20
1831.26
 30
0.000000
  70
    32
  0
VERTEX
  8
0
  5
1004
 10
3414.89
 20
1831.25
 30
0.000000
  70
    32
  0
VERTEX
  8
0
  5
1005
 10
3414.90
 20
1831.23
 30
0.000000
  70
    32
  0
VERTEX
  8
0
  5
1006
 10
3414.90
 20
1831.22
 30
0.000000
  70
    32
  0
VERTEX
  8
0
  5
1007
 10
3414.90
 20
1831.20
 30
0.000000
  70
    32
  0
VERTEX
  8
0
  5
1008
 10
3414.90
 20
1831.19
 30
0.000000
  70
    32
  0
VERTEX
  8
0
  5
1009
 10
3414.90
 20
1831.17
 30
0.000000
  70
    32
  0
VERTEX
  8
0
  5
100A
 10
3414.90
 20
1831.16
 30
0.000000
  70
    32
  0
VERTEX
  8
0
  5
100B
 10
3414.90
 20
1831.15
 30
0.000000
  70
    32
  0
VERTEX
  8
0
  5
100C
 10
3414.91
 20
1831.13
 30
0.000000
  70
    32
  0
VERTEX
  8
0
  5
100D
 10
3414.91
 20
1831.12
 30
0.000000
  70
    32
  0
VERTEX
  8
0
  5
100E
 10
3414.91
 20
1831.10
 30
0.000000
  70
    32
  0
VERTEX
  8
0
  5
100F
 10
3414.91
 20
1831.09
 30
0.000000
  70
    32
  0
VERTEX
  8
0
  5
1010
 10
3414.91
 20
1831.07
 30
0.000000
  70
    32
  0
VERTEX
  8
0
  5
1011
 10
3414.91
 20
1831.06
 30
0.000000
  70
    32
  0
VERTEX
  8
0
  5
1012
 10
3414.91
 20
1831.04
 30
0.000000
  70
    32
  0
VERTEX
  8
0
  5
1013
 10
3414.91
 20
1831.03
 30
0.000000
  70
    32
  0
VERTEX
  8
0
  5
1014
 10
3414.92
 20
1831.02
 30
0.000000
  70
    32
  0
VERTEX
  8
0
  5
1015
 10
3414.92
 20
1831.00
 30
0.000000
  70
    32
  0
VERTEX
  8
0
  5
1016
 10
3414.92
 20
1830.99
 30
0.000000
  70
    32
  0
VERTEX
  8
0
  5
1017
 10
3414.92
 20
1830.97
 30
0.000000
  70
    32
  0
VERTEX
  8
0
  5
1018
 10
3414.92
 20
1830.96
 30
0.000000
  70
    32
  0
VERTEX
  8
0
  5
1019
 10
3414.92
 20
1830.94
 30
0.000000
  70
    32
  0
VERTEX
  8
0
  5
101A
 10
3414.92
 20
1830.93
 30
0.000000
  70
    32
  0
VERTEX
  8
0
  5
101B
 10
3414.93
 20
1830.91
 30
0.000000
  70
    32
  0
VERTEX
  8
0
  5
101C
 10
3414.93
 20
1830.90
 30
0.000000
  70
    32
  0
VERTEX
  8
0
  5
101D
 10
3414.93
 20
1830.89
 30
0.000000
  70
    32
  0
VERTEX
  8
0
  5
101E
 10
3414.93
 20
1830.87
 30
0.000000
  70
    32
  0
VERTEX
  8
0
  5
101F
 10
3414.93
 20
1830.86
 30
0.000000
  70
    32
  0
VERTEX
  8
0
  5
1020
 10
3414.93
 20
1830.84
 30
0.000000
  70
    32
  0
VERTEX
  8
0
  5
1021
 10
3414.93
 20
1830.83
 30
0.000000
  70
    32
  0
VERTEX
  8
0
  5
1022
 10
3414.94
 20
1830.81
 30
0.000000
  70
    32
  0
VERTEX
  8
0
  5
1023
 10
3414.94
 20
1830.80
 30
0.000000
  70
    32
  0
VERTEX
  8
0
  5
1024
 10
3414.94
 20
1830.78
 30
0.000000
  70
    32
  0
VERTEX
  8
0
  5
1025
 10
3414.94
 20
1830.77
 30
0.000000
  70
    32
  0
VERTEX
  8
0
  5
1026
 10
3414.94
 20
1830.76
 30
0.000000
  70
    32
  0
VERTEX
  8
0
  5
1027
 10
3414.94
 20
1830.74
 30
0.000000
  70
    32
  0
VERTEX
  8
0
  5
1028
 10
3414.94
 20
1830.73
 30
0.000000
  70
    32
  0
VERTEX
  8
0
  5
1029
 10
3414.95
 20
1830.71
 30
0.000000
  70
    32
  0
VERTEX
  8
0
  5
102A
 10
3414.95
 20
1830.70
 30
0.000000
  70
    32
  0
VERTEX
  8
0
  5
102B
 10
3414.95
 20
1830.68
 30
0.000000
  70
    32
  0
VERTEX
  8
0
  5
102C
 10
3414.95
 20
1830.67
 30
0.000000
  70
    32
  0
VERTEX
  8
0
  5
102D
 10
3414.95
 20
1830.65
 30
0.000000
  70
    32
  0
VERTEX
  8
0
  5
102E
 10
3414.95
 20
1830.64
 30
0.000000
  70
    32
  0
VERTEX
  8
0
  5
102F
 10
3414.95
 20
1830.63
 30
0.000000
  70
    32
  0
VERTEX
  8
0
  5
1030
 10
3414.96
 20
1830.61
 30
0.000000
  70
    32
  0
VERTEX
  8
0
  5
1031
 10
3414.96
 20
1830.60
 30
0.000000
  70
    32
  0
VERTEX
  8
0
  5
1032
 10
3414.96
 20
1830.58
 30
0.000000
  70
    32
  0
VERTEX
  8
0
  5
1033
 10
3414.96
 20
1830.57
 30
0.000000
  70
    32
  0
VERTEX
  8
0
  5
1034
 10
3414.96
 20
1830.55
 30
0.000000
  70
    32
  0
VERTEX
  8
0
  5
1035
 10
3414.96
 20
1830.54
 30
0.000000
  70
    32
  0
VERTEX
  8
0
  5
1036
 10
3414.96
 20
1830.52
 30
0.000000
  70
    32
  0
VERTEX
  8
0
  5
1037
 10
3414.97
 20
1830.51
 30
0.000000
  70
    32
  0
VERTEX
  8
0
  5
1038
 10
3414.97
 20
1830.50
 30
0.000000
  70
    32
  0
VERTEX
  8
0
  5
1039
 10
3414.97
 20
1830.48
 30
0.000000
  70
    32
  0
VERTEX
  8
0
  5
103A
 10
3414.97
 20
1830.47
 30
0.000000
  70
    32
  0
VERTEX
  8
0
  5
103B
 10
3414.97
 20
1830.45
 30
0.000000
  70
    32
  0
VERTEX
  8
0
  5
103C
 10
3414.97
 20
1830.44
 30
0.000000
  70
    32
  0
VERTEX
  8
0
  5
103D
 10
3414.97
 20
1830.42
 30
0.000000
  70
    32
  0
VERTEX
  8
0
  5
103E
 10
3414.98
 20
1830.41
 30
0.000000
  70
    32
  0
VERTEX
  8
0
  5
103F
 10
3414.98
 20
1830.39
 30
0.000000
  70
    32
  0
VERTEX
  8
0
  5
1040
 10
3414.98
 20
1830.38
 30
0.000000
  70
    32
  0
VERTEX
  8
0
  5
1041
 10
3414.98
 20
1830.36
 30
0.000000
  70
    32
  0
VERTEX
  8
0
  5
1042
 10
3414.98
 20
1830.35
 30
0.000000
  70
    32
  0
VERTEX
  8
0
  5
1043
 10
3414.98
 20
1830.34
 30
0.000000
  70
    32
  0
VERTEX
  8
0
  5
1044
 10
3414.98
 20
1830.32
 30
0.000000
  70
    32
  0
VERTEX
  8
0
  5
1045
 10
3414.99
 20
1830.31
 30
0.000000
  70
    32
  0
VERTEX
  8
0
  5
1046
 10
3414.99
 20
1830.29
 30
0.000000
  70
    32
  0
VERTEX
  8
0
  5
1047
 10
3414.99
 20
1830.28
 30
0.000000
  70
    32
  0
VERTEX
  8
0
  5
1048
 10
3414.99
 20
1830.26
 30
0.000000
  70
    32
  0
VERTEX
  8
0
  5
1049
 10
3414.99
 20
1830.25
 30
0.000000
  70
    32
  0
VERTEX
  8
0
  5
104A
 10
3414.99
 20
1830.23
 30
0.000000
  70
    32
  0
VERTEX
  8
0
  5
104B
 10
3414.99
 20
1830.22
 30
0.000000
  70
    32
  0
VERTEX
  8
0
  5
104C
 10
3415.00
 20
1830.21
 30
0.000000
  70
    32
  0
VERTEX
  8
0
  5
104D
 10
3415.00
 20
1830.19
 30
0.000000
  70
    32
  0
VERTEX
  8
0
  5
104E
 10
3415.00
 20
1830.18
 30
0.000000
  70
    32
  0
VERTEX
  8
0
  5
104F
 10
3415.00
 20
1830.16
 30
0.000000
  70
    32
  0
VERTEX
  8
0
  5
1050
 10
3415.00
 20
1830.15
 30
0.000000
  70
    32
  0
VERTEX
  8
0
  5
1051
 10
3415.00
 20
1830.13
 30
0.000000
  70
    32
  0
VERTEX
  8
0
  5
1052
 10
3415.00
 20
1830.12
 30
0.000000
  70
    32
  0
VERTEX
  8
0
  5
1053
 10
3415.01
 20
1830.10
 30
0.000000
  70
    32
  0
VERTEX
  8
0
  5
1054
 10
3415.01
 20
1830.09
 30
0.000000
  70
    32
  0
VERTEX
  8
0
  5
1055
 10
3415.01
 20
1830.08
 30
0.000000
  70
    32
  0
VERTEX
  8
0
  5
1056
 10
3415.01
 20
1830.06
 30
0.000000
  70
    32
  0
VERTEX
  8
0
  5
1057
 10
3415.01
 20
1830.05
 30
0.000000
  70
    32
  0
VERTEX
  8
0
  5
1058
 10
3415.01
 20
1830.03
 30
0.000000
  70
    32
  0
VERTEX
  8
0
  5
1059
 10
3415.02
 20
1830.02
 30
0.000000
  70
    32
  0
VERTEX
  8
0
  5
105A
 10
3415.02
 20
1830.00
 30
0.000000
  70
    32
  0
VERTEX
  8
0
  5
105B
 10
3415.02
 20
1829.99
 30
0.000000
  70
    32
  0
VERTEX
  8
0
  5
105C
 10
3415.02
 20
1829.97
 30
0.000000
  70
    32
  0
VERTEX
  8
0
  5
105D
 10
3415.02
 20
1829.96
 30
0.000000
  70
    32
  0
VERTEX
  8
0
  5
105E
 10
3415.02
 20
1829.95
 30
0.000000
  70
    32
  0
VERTEX
  8
0
  5
105F
 10
3415.02
 20
1829.93
 30
0.000000
  70
    32
  0
VERTEX
  8
0
  5
1060
 10
3415.03
 20
1829.92
 30
0.000000
  70
    32
  0
VERTEX
  8
0
  5
1061
 10
3415.03
 20
1829.90
 30
0.000000
  70
    32
  0
VERTEX
  8
0
  5
1062
 10
3415.03
 20
1829.89
 30
0.000000
  70
    32
  0
VERTEX
  8
0
  5
1063
 10
3415.03
 20
1829.87
 30
0.000000
  70
    32
  0
VERTEX
  8
0
  5
1064
 10
3415.03
 20
1829.86
 30
0.000000
  70
    32
  0
VERTEX
  8
0
  5
1065
 10
3415.03
 20
1829.84
 30
0.000000
  70
    32
  0
VERTEX
  8
0
  5
1066
 10
3415.03
 20
1829.83
 30
0.000000
  70
    32
  0
VERTEX
  8
0
  5
1067
 10
3415.04
 20
1829.82
 30
0.000000
  70
    32
  0
VERTEX
  8
0
  5
1068
 10
3415.04
 20
1829.80
 30
0.000000
  70
    32
  0
VERTEX
  8
0
  5
1069
 10
3415.04
 20
1829.79
 30
0.000000
  70
    32
  0
VERTEX
  8
0
  5
106A
 10
3415.04
 20
1829.77
 30
0.000000
  70
    32
  0
VERTEX
  8
0
  5
106B
 10
3415.04
 20
1829.76
 30
0.000000
  70
    32
  0
VERTEX
  8
0
  5
106C
 10
3415.04
 20
1829.74
 30
0.000000
  70
    32
  0
VERTEX
  8
0
  5
106D
 10
3415.05
 20
1829.73
 30
0.000000
  70
    32
  0
VERTEX
  8
0
  5
106E
 10
3415.05
 20
1829.71
 30
0.000000
  70
    32
  0
VERTEX
  8
0
  5
106F
 10
3415.05
 20
1829.70
 30
0.000000
  70
    32
  0
VERTEX
  8
0
  5
1070
 10
3415.05
 20
1829.69
 30
0.000000
  70
    32
  0
VERTEX
  8
0
  5
1071
 10
3415.05
 20
1829.67
 30
0.000000
  70
    32
  0
VERTEX
  8
0
  5
1072
 10
3415.05
 20
1829.66
 30
0.000000
  70
    32
  0
VERTEX
  8
0
  5
1073
 10
3415.05
 20
1829.64
 30
0.000000
  70
    32
  0
VERTEX
  8
0
  5
1074
 10
3415.06
 20
1829.63
 30
0.000000
  70
    32
  0
VERTEX
  8
0
  5
1075
 10
3415.06
 20
1829.61
 30
0.000000
  70
    32
  0
VERTEX
  8
0
  5
1076
 10
3415.06
 20
1829.60
 30
0.000000
  70
    32
  0
VERTEX
  8
0
  5
1077
 10
3415.06
 20
1829.58
 30
0.000000
  70
    32
  0
VERTEX
  8
0
  5
1078
 10
3415.06
 20
1829.57
 30
0.000000
  70
    32
  0
VERTEX
  8
0
  5
1079
 10
3415.06
 20
1829.56
 30
0.000000
  70
    32
  0
VERTEX
  8
0
  5
107A
 10
3415.07
 20
1829.54
 30
0.000000
  70
    32
  0
VERTEX
  8
0
  5
107B
 10
3415.07
 20
1829.53
 30
0.000000
  70
    32
  0
VERTEX
  8
0
  5
107C
 10
3415.07
 20
1829.51
 30
0.000000
  70
    32
  0
VERTEX
  8
0
  5
107D
 10
3415.07
 20
1829.50
 30
0.000000
  70
    32
  0
VERTEX
  8
0
  5
107E
 10
3415.07
 20
1829.48
 30
0.000000
  70
    32
  0
VERTEX
  8
0
  5
107F
 10
3415.07
 20
1829.47
 30
0.000000
  70
    32
  0
VERTEX
  8
0
  5
1080
 10
3415.08
 20
1829.45
 30
0.000000
  70
    32
  0
VERTEX
  8
0
  5
1081
 10
3415.08
 20
1829.44
 30
0.000000
  70
    32
  0
VERTEX
  8
0
  5
1082
 10
3415.08
 20
1829.42
 30
0.000000
  70
    32
  0
VERTEX
  8
0
  5
1083
 10
3415.08
 20
1829.41
 30
0.000000
  70
    32
  0
VERTEX
  8
0
  5
1084
 10
3415.08
 20
1829.40
 30
0.000000
  70
    32
  0
VERTEX
  8
0
  5
1085
 10
3415.08
 20
1829.38
 30
0.000000
  70
    32
  0
VERTEX
  8
0
  5
1086
 10
3415.09
 20
1829.37
 30
0.000000
  70
    32
  0
VERTEX
  8
0
  5
1087
 10
3415.09
 20
1829.35
 30
0.000000
  70
    32
  0
VERTEX
  8
0
  5
1088
 10
3415.09
 20
1829.34
 30
0.000000
  70
    32
  0
VERTEX
  8
0
  5
1089
 10
3415.09
 20
1829.32
 30
0.000000
  70
    32
  0
VERTEX
  8
0
  5
108A
 10
3415.09
 20
1829.31
 30
0.000000
  70
    32
  0
VERTEX
  8
0
  5
108B
 10
3415.09
 20
1829.29
 30
0.000000
  70
    32
  0
VERTEX
  8
0
  5
108C
 10
3415.09
 20
1829.28
 30
0.000000
  70
    32
  0
VERTEX
  8
0
  5
108D
 10
3415.10
 20
1829.27
 30
0.000000
  70
    32
  0
VERTEX
  8
0
  5
108E
 10
3415.10
 20
1829.25
 30
0.000000
  70
    32
  0
VERTEX
  8
0
  5
108F
 10
3415.10
 20
1829.24
 30
0.000000
  70
    32
  0
VERTEX
  8
0
  5
1090
 10
3415.10
 20
1829.22
 30
0.000000
  70
    32
  0
VERTEX
  8
0
  5
1091
 10
3415.10
 20
1829.21
 30
0.000000
  70
    32
  0
VERTEX
  8
0
  5
1092
 10
3415.10
 20
1829.19
 30
0.000000
  70
    32
  0
VERTEX
  8
0
  5
1093
 10
3415.11
 20
1829.18
 30
0.000000
  70
    32
  0
VERTEX
  8
0
  5
1094
 10
3415.11
 20
1829.16
 30
0.000000
  70
    32
  0
VERTEX
  8
0
  5
1095
 10
3415.11
 20
1829.15
 30
0.000000
  70
    32
  0
VERTEX
  8
0
  5
1096
 10
3415.11
 20
1829.14
 30
0.000000
  70
    32
  0
VERTEX
  8
0
  5
1097
 10
3415.11
 20
1829.12
 30
0.000000
  70
    32
  0
VERTEX
  8
0
  5
1098
 10
3415.11
 20
1829.11
 30
0.000000
  70
    32
  0
VERTEX
  8
0
  5
1099
 10
3415.12
 20
1829.09
 30
0.000000
  70
    32
  0
VERTEX
  8
0
  5
109A
 10
3415.12
 20
1829.08
 30
0.000000
  70
    32
  0
VERTEX
  8
0
  5
109B
 10
3415.12
 20
1829.06
 30
0.000000
  70
    32
  0
VERTEX
  8
0
  5
109C
 10
3415.12
 20
1829.05
 30
0.000000
  70
    32
  0
VERTEX
  8
0
  5
109D
 10
3415.12
 20
1829.03
 30
0.000000
  70
    32
  0
VERTEX
  8
0
  5
109E
 10
3415.12
 20
1829.02
 30
0.000000
  70
    32
  0
VERTEX
  8
0
  5
109F
 10
3415.13
 20
1829.01
 30
0.000000
  70
    32
  0
VERTEX
  8
0
  5
10A0
 10
3415.13
 20
1828.99
 30
0.000000
  70
    32
  0
VERTEX
  8
0
  5
10A1
 10
3415.13
 20
1828.98
 30
0.000000
  70
    32
  0
VERTEX
  8
0
  5
10A2
 10
3415.13
 20
1828.96
 30
0.000000
  70
    32
  0
VERTEX
  8
0
  5
10A3
 10
3415.13
 20
1828.95
 30
0.000000
  70
    32
  0
VERTEX
  8
0
  5
10A4
 10
3415.13
 20
1828.93
 30
0.000000
  70
    32
  0
VERTEX
  8
0
  5
10A5
 10
3415.14
 20
1828.92
 30
0.000000
  70
    32
  0
VERTEX
  8
0
  5
10A6
 10
3415.14
 20
1828.90
 30
0.000000
  70
    32
  0
VERTEX
  8
0
  5
10A7
 10
3415.14
 20
1828.89
 30
0.000000
  70
    32
  0
VERTEX
  8
0
  5
10A8
 10
3415.14
 20
1828.88
 30
0.000000
  70
    32
  0
VERTEX
  8
0
  5
10A9
 10
3415.14
 20
1828.86
 30
0.000000
  70
    32
  0
VERTEX
  8
0
  5
10AA
 10
3415.14
 20
1828.85
 30
0.000000
  70
    32
  0
VERTEX
  8
0
  5
10AB
 10
3415.15
 20
1828.83
 30
0.000000
  70
    32
  0
VERTEX
  8
0
  5
10AC
 10
3415.15
 20
1828.82
 30
0.000000
  70
    32
  0
VERTEX
  8
0
  5
10AD
 10
3415.15
 20
1828.80
 30
0.000000
  70
    32
  0
VERTEX
  8
0
  5
10AE
 10
3415.15
 20
1828.79
 30
0.000000
  70
    32
  0
VERTEX
  8
0
  5
10AF
 10
3415.15
 20
1828.77
 30
0.000000
  70
    32
  0
VERTEX
  8
0
  5
10B0
 10
3415.15
 20
1828.76
 30
0.000000
  70
    32
  0
VERTEX
  8
0
  5
10B1
 10
3415.16
 20
1828.74
 30
0.000000
  70
    32
  0
VERTEX
  8
0
  5
10B2
 10
3415.16
 20
1828.73
 30
0.000000
  70
    32
  0
VERTEX
  8
0
  5
10B3
 10
3415.16
 20
1828.72
 30
0.000000
  70
    32
  0
VERTEX
  8
0
  5
10B4
 10
3415.16
 20
1828.70
 30
0.000000
  70
    32
  0
VERTEX
  8
0
  5
10B5
 10
3415.16
 20
1828.69
 30
0.000000
  70
    32
  0
VERTEX
  8
0
  5
10B6
 10
3415.17
 20
1828.67
 30
0.000000
  70
    32
  0
VERTEX
  8
0
  5
10B7
 10
3415.17
 20
1828.66
 30
0.000000
  70
    32
  0
VERTEX
  8
0
  5
10B8
 10
3415.17
 20
1828.64
 30
0.000000
  70
    32
  0
VERTEX
  8
0
  5
10B9
 10
3415.17
 20
1828.63
 30
0.000000
  70
    32
  0
VERTEX
  8
0
  5
10BA
 10
3415.17
 20
1828.61
 30
0.000000
  70
    32
  0
VERTEX
  8
0
  5
10BB
 10
3415.17
 20
1828.60
 30
0.000000
  70
    32
  0
VERTEX
  8
0
  5
10BC
 10
3415.18
 20
1828.59
 30
0.000000
  70
    32
  0
VERTEX
  8
0
  5
10BD
 10
3415.18
 20
1828.57
 30
0.000000
  70
    32
  0
VERTEX
  8
0
  5
10BE
 10
3415.18
 20
1828.56
 30
0.000000
  70
    32
  0
VERTEX
  8
0
  5
10BF
 10
3415.18
 20
1828.54
 30
0.000000
  70
    32
  0
VERTEX
  8
0
  5
10C0
 10
3415.18
 20
1828.53
 30
0.000000
  70
    32
  0
VERTEX
  8
0
  5
10C1
 10
3415.18
 20
1828.51
 30
0.000000
  70
    32
  0
VERTEX
  8
0
  5
10C2
 10
3415.19
 20
1828.50
 30
0.000000
  70
    32
  0
VERTEX
  8
0
  5
10C3
 10
3415.19
 20
1828.48
 30
0.000000
  70
    32
  0
VERTEX
  8
0
  5
10C4
 10
3415.19
 20
1828.47
 30
0.000000
  70
    32
  0
VERTEX
  8
0
  5
10C5
 10
3415.19
 20
1828.46
 30
0.000000
  70
    32
  0
VERTEX
  8
0
  5
10C6
 10
3415.19
 20
1828.44
 30
0.000000
  70
    32
  0
VERTEX
  8
0
  5
10C7
 10
3415.20
 20
1828.43
 30
0.000000
  70
    32
  0
VERTEX
  8
0
  5
10C8
 10
3415.20
 20
1828.41
 30
0.000000
  70
    32
  0
VERTEX
  8
0
  5
10C9
 10
3415.20
 20
1828.40
 30
0.000000
  70
    32
  0
VERTEX
  8
0
  5
10CA
 10
3415.20
 20
1828.38
 30
0.000000
  70
    32
  0
VERTEX
  8
0
  5
10CB
 10
3415.20
 20
1828.37
 30
0.000000
  70
    32
  0
VERTEX
  8
0
  5
10CC
 10
3415.20
 20
1828.35
 30
0.000000
  70
    32
  0
VERTEX
  8
0
  5
10CD
 10
3415.21
 20
1828.34
 30
0.000000
  70
    32
  0
VERTEX
  8
0
  5
10CE
 10
3415.21
 20
1828.32
 30
0.000000
  70
    32
  0
VERTEX
  8
0
  5
10CF
 10
3415.21
 20
1828.31
 30
0.000000
  70
    32
  0
VERTEX
  8
0
  5
10D0
 10
3415.21
 20
1828.30
 30
0.000000
  70
    32
  0
VERTEX
  8
0
  5
10D1
 10
3415.21
 20
1828.28
 30
0.000000
  70
    32
  0
VERTEX
  8
0
  5
10D2
 10
3415.21
 20
1828.27
 30
0.000000
  70
    32
  0
VERTEX
  8
0
  5
10D3
 10
3415.22
 20
1828.25
 30
0.000000
  70
    32
  0
VERTEX
  8
0
  5
10D4
 10
3415.22
 20
1828.24
 30
0.000000
  70
    32
  0
VERTEX
  8
0
  5
10D5
 10
3415.22
 20
1828.22
 30
0.000000
  70
    32
  0
VERTEX
  8
0
  5
10D6
 10
3415.22
 20
1828.21
 30
0.000000
  70
    32
  0
VERTEX
  8
0
  5
10D7
 10
3415.22
 20
1828.19
 30
0.000000
  70
    32
  0
VERTEX
  8
0
  5
10D8
 10
3415.23
 20
1828.18
 30
0.000000
  70
    32
  0
VERTEX
  8
0
  5
10D9
 10
3415.23
 20
1828.17
 30
0.000000
  70
    32
  0
VERTEX
  8
0
  5
10DA
 10
3415.23
 20
1828.15
 30
0.000000
  70
    32
  0
VERTEX
  8
0
  5
10DB
 10
3415.23
 20
1828.14
 30
0.000000
  70
    32
  0
VERTEX
  8
0
  5
10DC
 10
3415.23
 20
1828.12
 30
0.000000
  70
    32
  0
VERTEX
  8
0
  5
10DD
 10
3415.24
 20
1828.11
 30
0.000000
  70
    32
  0
VERTEX
  8
0
  5
10DE
 10
3415.24
 20
1828.09
 30
0.000000
  70
    32
  0
VERTEX
  8
0
  5
10DF
 10
3415.24
 20
1828.08
 30
0.000000
  70
    32
  0
VERTEX
  8
0
  5
10E0
 10
3415.24
 20
1828.06
 30
0.000000
  70
    32
  0
VERTEX
  8
0
  5
10E1
 10
3415.24
 20
1828.05
 30
0.000000
  70
    32
  0
VERTEX
  8
0
  5
10E2
 10
3415.24
 20
1828.04
 30
0.000000
  70
    32
  0
VERTEX
  8
0
  5
10E3
 10
3415.25
 20
1828.02
 30
0.000000
  70
    32
  0
VERTEX
  8
0
  5
10E4
 10
3415.25
 20
1828.01
 30
0.000000
  70
    32
  0
VERTEX
  8
0
  5
10E5
 10
3415.25
 20
1827.99
 30
0.000000
  70
    32
  0
VERTEX
  8
0
  5
10E6
 10
3415.25
 20
1827.98
 30
0.000000
  70
    32
  0
VERTEX
  8
0
  5
10E7
 10
3415.25
 20
1827.96
 30
0.000000
  70
    32
  0
VERTEX
  8
0
  5
10E8
 10
3415.26
 20
1827.95
 30
0.000000
  70
    32
  0
VERTEX
  8
0
  5
10E9
 10
3415.26
 20
1827.93
 30
0.000000
  70
    32
  0
VERTEX
  8
0
  5
10EA
 10
3415.26
 20
1827.92
 30
0.000000
  70
    32
  0
VERTEX
  8
0
  5
10EB
 10
3415.26
 20
1827.90
 30
0.000000
  70
    32
  0
VERTEX
  8
0
  5
10EC
 10
3415.26
 20
1827.89
 30
0.000000
  70
    32
  0
VERTEX
  8
0
  5
10ED
 10
3415.27
 20
1827.88
 30
0.000000
  70
    32
  0
VERTEX
  8
0
  5
10EE
 10
3415.27
 20
1827.86
 30
0.000000
  70
    32
  0
VERTEX
  8
0
  5
10EF
 10
3415.27
 20
1827.85
 30
0.000000
  70
    32
  0
VERTEX
  8
0
  5
10F0
 10
3415.27
 20
1827.83
 30
0.000000
  70
    32
  0
VERTEX
  8
0
  5
10F1
 10
3415.27
 20
1827.82
 30
0.000000
  70
    32
  0
VERTEX
  8
0
  5
10F2
 10
3415.27
 20
1827.80
 30
0.000000
  70
    32
  0
VERTEX
  8
0
  5
10F3
 10
3415.28
 20
1827.79
 30
0.000000
  70
    32
  0
VERTEX
  8
0
  5
10F4
 10
3415.28
 20
1827.77
 30
0.000000
  70
    32
  0
VERTEX
  8
0
  5
10F5
 10
3415.28
 20
1827.76
 30
0.000000
  70
    32
  0
VERTEX
  8
0
  5
10F6
 10
3415.28
 20
1827.75
 30
0.000000
  70
    32
  0
VERTEX
  8
0
  5
10F7
 10
3415.28
 20
1827.73
 30
0.000000
  70
    32
  0
VERTEX
  8
0
  5
10F8
 10
3415.29
 20
1827.72
 30
0.000000
  70
    32
  0
VERTEX
  8
0
  5
10F9
 10
3415.29
 20
1827.70
 30
0.000000
  70
    32
  0
VERTEX
  8
0
  5
10FA
 10
3415.29
 20
1827.69
 30
0.000000
  70
    32
  0
VERTEX
  8
0
  5
10FB
 10
3415.29
 20
1827.67
 30
0.000000
  70
    32
  0
VERTEX
  8
0
  5
10FC
 10
3415.29
 20
1827.66
 30
0.000000
  70
    32
  0
VERTEX
  8
0
  5
10FD
 10
3415.30
 20
1827.64
 30
0.000000
  70
    32
  0
VERTEX
  8
0
  5
10FE
 10
3415.30
 20
1827.63
 30
0.000000
  70
    32
  0
VERTEX
  8
0
  5
10FF
 10
3415.30
 20
1827.61
 30
0.000000
  70
    32
  0
VERTEX
  8
0
  5
1100
 10
3415.30
 20
1827.60
 30
0.000000
  70
    32
  0
VERTEX
  8
0
  5
1101
 10
3415.30
 20
1827.59
 30
0.000000
  70
    32
  0
VERTEX
  8
0
  5
1102
 10
3415.31
 20
1827.57
 30
0.000000
  70
    32
  0
VERTEX
  8
0
  5
1103
 10
3415.31
 20
1827.56
 30
0.000000
  70
    32
  0
VERTEX
  8
0
  5
1104
 10
3415.31
 20
1827.54
 30
0.000000
  70
    32
  0
VERTEX
  8
0
  5
1105
 10
3415.31
 20
1827.53
 30
0.000000
  70
    32
  0
VERTEX
  8
0
  5
1106
 10
3415.31
 20
1827.51
 30
0.000000
  70
    32
  0
VERTEX
  8
0
  5
1107
 10
3415.32
 20
1827.50
 30
0.000000
  70
    32
  0
VERTEX
  8
0
  5
1108
 10
3415.32
 20
1827.48
 30
0.000000
  70
    32
  0
VERTEX
  8
0
  5
1109
 10
3415.32
 20
1827.47
 30
0.000000
  70
    32
  0
VERTEX
  8
0
  5
110A
 10
3415.32
 20
1827.46
 30
0.000000
  70
    32
  0
VERTEX
  8
0
  5
110B
 10
3415.32
 20
1827.44
 30
0.000000
  70
    32
  0
VERTEX
  8
0
  5
110C
 10
3415.33
 20
1827.43
 30
0.000000
  70
    32
  0
VERTEX
  8
0
  5
110D
 10
3415.33
 20
1827.41
 30
0.000000
  70
    32
  0
VERTEX
  8
0
  5
110E
 10
3415.33
 20
1827.40
 30
0.000000
  70
    32
  0
VERTEX
  8
0
  5
110F
 10
3415.33
 20
1827.38
 30
0.000000
  70
    32
  0
VERTEX
  8
0
  5
1110
 10
3415.33
 20
1827.37
 30
0.000000
  70
    32
  0
VERTEX
  8
0
  5
1111
 10
3415.34
 20
1827.35
 30
0.000000
  70
    32
  0
VERTEX
  8
0
  5
1112
 10
3415.34
 20
1827.34
 30
0.000000
  70
    32
  0
VERTEX
  8
0
  5
1113
 10
3415.34
 20
1827.32
 30
0.000000
  70
    32
  0
VERTEX
  8
0
  5
1114
 10
3415.34
 20
1827.31
 30
0.000000
  70
    32
  0
VERTEX
  8
0
  5
1115
 10
3415.34
 20
1827.30
 30
0.000000
  70
    32
  0
VERTEX
  8
0
  5
1116
 10
3415.35
 20
1827.28
 30
0.000000
  70
    32
  0
VERTEX
  8
0
  5
1117
 10
3415.35
 20
1827.27
 30
0.000000
  70
    32
  0
VERTEX
  8
0
  5
1118
 10
3415.35
 20
1827.25
 30
0.000000
  70
    32
  0
VERTEX
  8
0
  5
1119
 10
3415.35
 20
1827.24
 30
0.000000
  70
    32
  0
VERTEX
  8
0
  5
111A
 10
3415.35
 20
1827.22
 30
0.000000
  70
    32
  0
VERTEX
  8
0
  5
111B
 10
3415.36
 20
1827.21
 30
0.000000
  70
    32
  0
VERTEX
  8
0
  5
111C
 10
3415.36
 20
1827.19
 30
0.000000
  70
    32
  0
VERTEX
  8
0
  5
111D
 10
3415.36
 20
1827.18
 30
0.000000
  70
    32
  0
VERTEX
  8
0
  5
111E
 10
3415.36
 20
1827.17
 30
0.000000
  70
    32
  0
VERTEX
  8
0
  5
111F
 10
3415.36
 20
1827.15
 30
0.000000
  70
    32
  0
VERTEX
  8
0
  5
1120
 10
3415.37
 20
1827.14
 30
0.000000
  70
    32
  0
VERTEX
  8
0
  5
1121
 10
3415.37
 20
1827.12
 30
0.000000
  70
    32
  0
VERTEX
  8
0
  5
1122
 10
3415.37
 20
1827.11
 30
0.000000
  70
    32
  0
VERTEX
  8
0
  5
1123
 10
3415.37
 20
1827.09
 30
0.000000
  70
    32
  0
VERTEX
  8
0
  5
1124
 10
3415.38
 20
1827.08
 30
0.000000
  70
    32
  0
VERTEX
  8
0
  5
1125
 10
3415.38
 20
1827.06
 30
0.000000
  70
    32
  0
VERTEX
  8
0
  5
1126
 10
3415.38
 20
1827.05
 30
0.000000
  70
    32
  0
VERTEX
  8
0
  5
1127
 10
3415.38
 20
1827.03
 30
0.000000
  70
    32
  0
VERTEX
  8
0
  5
1128
 10
3415.38
 20
1827.02
 30
0.000000
  70
    32
  0
VERTEX
  8
0
  5
1129
 10
3415.39
 20
1827.01
 30
0.000000
  70
    32
  0
VERTEX
  8
0
  5
112A
 10
3415.39
 20
1826.99
 30
0.000000
  70
    32
  0
VERTEX
  8
0
  5
112B
 10
3415.39
 20
1826.98
 30
0.000000
  70
    32
  0
VERTEX
  8
0
  5
112C
 10
3415.39
 20
1826.96
 30
0.000000
  70
    32
  0
VERTEX
  8
0
  5
112D
 10
3415.39
 20
1826.95
 30
0.000000
  70
    32
  0
VERTEX
  8
0
  5
112E
 10
3415.40
 20
1826.93
 30
0.000000
  70
    32
  0
VERTEX
  8
0
  5
112F
 10
3415.40
 20
1826.92
 30
0.000000
  70
    32
  0
VERTEX
  8
0
  5
1130
 10
3415.40
 20
1826.90
 30
0.000000
  70
    32
  0
VERTEX
  8
0
  5
1131
 10
3415.40
 20
1826.89
 30
0.000000
  70
    32
  0
VERTEX
  8
0
  5
1132
 10
3415.41
 20
1826.87
 30
0.000000
  70
    32
  0
VERTEX
  8
0
  5
1133
 10
3415.41
 20
1826.86
 30
0.000000
  70
    32
  0
VERTEX
  8
0
  5
1134
 10
3415.41
 20
1826.85
 30
0.000000
  70
    32
  0
VERTEX
  8
0
  5
1135
 10
3415.41
 20
1826.83
 30
0.000000
  70
    32
  0
VERTEX
  8
0
  5
1136
 10
3415.41
 20
1826.82
 30
0.000000
  70
    32
  0
VERTEX
  8
0
  5
1137
 10
3415.42
 20
1826.80
 30
0.000000
  70
    32
  0
VERTEX
  8
0
  5
1138
 10
3415.42
 20
1826.79
 30
0.000000
  70
    32
  0
VERTEX
  8
0
  5
1139
 10
3415.42
 20
1826.77
 30
0.000000
  70
    32
  0
VERTEX
  8
0
  5
113A
 10
3415.42
 20
1826.76
 30
0.000000
  70
    32
  0
VERTEX
  8
0
  5
113B
 10
3415.43
 20
1826.74
 30
0.000000
  70
    32
  0
VERTEX
  8
0
  5
113C
 10
3415.43
 20
1826.73
 30
0.000000
  70
    32
  0
VERTEX
  8
0
  5
113D
 10
3415.43
 20
1826.71
 30
0.000000
  70
    32
  0
VERTEX
  8
0
  5
113E
 10
3415.43
 20
1826.70
 30
0.000000
  70
    32
  0
VERTEX
  8
0
  5
113F
 10
3415.43
 20
1826.69
 30
0.000000
  70
    32
  0
VERTEX
  8
0
  5
1140
 10
3415.44
 20
1826.67
 30
0.000000
  70
    32
  0
VERTEX
  8
0
  5
1141
 10
3415.44
 20
1826.66
 30
0.000000
  70
    32
  0
VERTEX
  8
0
  5
1142
 10
3415.44
 20
1826.64
 30
0.000000
  70
    32
  0
VERTEX
  8
0
  5
1143
 10
3415.44
 20
1826.63
 30
0.000000
  70
    32
  0
VERTEX
  8
0
  5
1144
 10
3415.45
 20
1826.61
 30
0.000000
  70
    32
  0
VERTEX
  8
0
  5
1145
 10
3415.45
 20
1826.60
 30
0.000000
  70
    32
  0
VERTEX
  8
0
  5
1146
 10
3415.45
 20
1826.58
 30
0.000000
  70
    32
  0
VERTEX
  8
0
  5
1147
 10
3415.45
 20
1826.57
 30
0.000000
  70
    32
  0
VERTEX
  8
0
  5
1148
 10
3415.45
 20
1826.55
 30
0.000000
  70
    32
  0
VERTEX
  8
0
  5
1149
 10
3415.46
 20
1826.54
 30
0.000000
  70
    32
  0
VERTEX
  8
0
  5
114A
 10
3415.46
 20
1826.53
 30
0.000000
  70
    32
  0
VERTEX
  8
0
  5
114B
 10
3415.46
 20
1826.51
 30
0.000000
  70
    32
  0
VERTEX
  8
0
  5
114C
 10
3415.46
 20
1826.50
 30
0.000000
  70
    32
  0
VERTEX
  8
0
  5
114D
 10
3415.47
 20
1826.48
 30
0.000000
  70
    32
  0
VERTEX
  8
0
  5
114E
 10
3415.47
 20
1826.47
 30
0.000000
  70
    32
  0
VERTEX
  8
0
  5
114F
 10
3415.47
 20
1826.45
 30
0.000000
  70
    32
  0
VERTEX
  8
0
  5
1150
 10
3415.47
 20
1826.44
 30
0.000000
  70
    32
  0
VERTEX
  8
0
  5
1151
 10
3415.47
 20
1826.42
 30
0.000000
  70
    32
  0
VERTEX
  8
0
  5
1152
 10
3415.48
 20
1826.41
 30
0.000000
  70
    32
  0
VERTEX
  8
0
  5
1153
 10
3415.48
 20
1826.39
 30
0.000000
  70
    32
  0
VERTEX
  8
0
  5
1154
 10
3415.48
 20
1826.38
 30
0.000000
  70
    32
  0
VERTEX
  8
0
  5
1155
 10
3415.48
 20
1826.37
 30
0.000000
  70
    32
  0
VERTEX
  8
0
  5
1156
 10
3415.49
 20
1826.35
 30
0.000000
  70
    32
  0
VERTEX
  8
0
  5
1157
 10
3415.49
 20
1826.34
 30
0.000000
  70
    32
  0
VERTEX
  8
0
  5
1158
 10
3415.49
 20
1826.32
 30
0.000000
  70
    32
  0
VERTEX
  8
0
  5
1159
 10
3415.49
 20
1826.31
 30
0.000000
  70
    32
  0
VERTEX
  8
0
  5
115A
 10
3415.50
 20
1826.29
 30
0.000000
  70
    32
  0
VERTEX
  8
0
  5
115B
 10
3415.50
 20
1826.28
 30
0.000000
  70
    32
  0
VERTEX
  8
0
  5
115C
 10
3415.50
 20
1826.26
 30
0.000000
  70
    32
  0
VERTEX
  8
0
  5
115D
 10
3415.50
 20
1826.25
 30
0.000000
  70
    32
  0
VERTEX
  8
0
  5
115E
 10
3415.51
 20
1826.23
 30
0.000000
  70
    32
  0
VERTEX
  8
0
  5
115F
 10
3415.51
 20
1826.22
 30
0.000000
  70
    32
  0
VERTEX
  8
0
  5
1160
 10
3415.51
 20
1826.21
 30
0.000000
  70
    32
  0
VERTEX
  8
0
  5
1161
 10
3415.51
 20
1826.19
 30
0.000000
  70
    32
  0
VERTEX
  8
0
  5
1162
 10
3415.52
 20
1826.18
 30
0.000000
  70
    32
  0
VERTEX
  8
0
  5
1163
 10
3415.52
 20
1826.16
 30
0.000000
  70
    32
  0
VERTEX
  8
0
  5
1164
 10
3415.52
 20
1826.15
 30
0.000000
  70
    32
  0
VERTEX
  8
0
  5
1165
 10
3415.52
 20
1826.13
 30
0.000000
  70
    32
  0
VERTEX
  8
0
  5
1166
 10
3415.52
 20
1826.12
 30
0.000000
  70
    32
  0
VERTEX
  8
0
  5
1167
 10
3415.53
 20
1826.10
 30
0.000000
  70
    32
  0
VERTEX
  8
0
  5
1168
 10
3415.53
 20
1826.09
 30
0.000000
  70
    32
  0
VERTEX
  8
0
  5
1169
 10
3415.53
 20
1826.07
 30
0.000000
  70
    32
  0
VERTEX
  8
0
  5
116A
 10
3415.53
 20
1826.06
 30
0.000000
  70
    32
  0
VERTEX
  8
0
  5
116B
 10
3415.54
 20
1826.04
 30
0.000000
  70
    32
  0
VERTEX
  8
0
  5
116C
 10
3415.54
 20
1826.03
 30
0.000000
  70
    32
  0
VERTEX
  8
0
  5
116D
 10
3415.54
 20
1826.02
 30
0.000000
  70
    32
  0
VERTEX
  8
0
  5
116E
 10
3415.54
 20
1826.00
 30
0.000000
  70
    32
  0
VERTEX
  8
0
  5
116F
 10
3415.55
 20
1825.99
 30
0.000000
  70
    32
  0
VERTEX
  8
0
  5
1170
 10
3415.55
 20
1825.97
 30
0.000000
  70
    32
  0
VERTEX
  8
0
  5
1171
 10
3415.55
 20
1825.96
 30
0.000000
  70
    32
  0
VERTEX
  8
0
  5
1172
 10
3415.55
 20
1825.94
 30
0.000000
  70
    32
  0
VERTEX
  8
0
  5
1173
 10
3415.56
 20
1825.93
 30
0.000000
  70
    32
  0
VERTEX
  8
0
  5
1174
 10
3415.56
 20
1825.91
 30
0.000000
  70
    32
  0
VERTEX
  8
0
  5
1175
 10
3415.56
 20
1825.90
 30
0.000000
  70
    32
  0
VERTEX
  8
0
  5
1176
 10
3415.56
 20
1825.88
 30
0.000000
  70
    32
  0
VERTEX
  8
0
  5
1177
 10
3415.57
 20
1825.87
 30
0.000000
  70
    32
  0
VERTEX
  8
0
  5
1178
 10
3415.57
 20
1825.86
 30
0.000000
  70
    32
  0
VERTEX
  8
0
  5
1179
 10
3415.57
 20
1825.84
 30
0.000000
  70
    32
  0
VERTEX
  8
0
  5
117A
 10
3415.58
 20
1825.83
 30
0.000000
  70
    32
  0
VERTEX
  8
0
  5
117B
 10
3415.58
 20
1825.81
 30
0.000000
  70
    32
  0
VERTEX
  8
0
  5
117C
 10
3415.58
 20
1825.80
 30
0.000000
  70
    32
  0
VERTEX
  8
0
  5
117D
 10
3415.58
 20
1825.78
 30
0.000000
  70
    32
  0
VERTEX
  8
0
  5
117E
 10
3415.59
 20
1825.77
 30
0.000000
  70
    32
  0
VERTEX
  8
0
  5
117F
 10
3415.59
 20
1825.75
 30
0.000000
  70
    32
  0
VERTEX
  8
0
  5
1180
 10
3415.59
 20
1825.74
 30
0.000000
  70
    32
  0
VERTEX
  8
0
  5
1181
 10
3415.59
 20
1825.72
 30
0.000000
  70
    32
  0
VERTEX
  8
0
  5
1182
 10
3415.60
 20
1825.71
 30
0.000000
  70
    32
  0
VERTEX
  8
0
  5
1183
 10
3415.60
 20
1825.69
 30
0.000000
  70
    32
  0
VERTEX
  8
0
  5
1184
 10
3415.60
 20
1825.68
 30
0.000000
  70
    32
  0
VERTEX
  8
0
  5
1185
 10
3415.60
 20
1825.67
 30
0.000000
  70
    32
  0
VERTEX
  8
0
  5
1186
 10
3415.61
 20
1825.65
 30
0.000000
  70
    32
  0
VERTEX
  8
0
  5
1187
 10
3415.61
 20
1825.64
 30
0.000000
  70
    32
  0
VERTEX
  8
0
  5
1188
 10
3415.61
 20
1825.62
 30
0.000000
  70
    32
  0
VERTEX
  8
0
  5
1189
 10
3415.61
 20
1825.61
 30
0.000000
  70
    32
  0
VERTEX
  8
0
  5
118A
 10
3415.62
 20
1825.59
 30
0.000000
  70
    32
  0
VERTEX
  8
0
  5
118B
 10
3415.62
 20
1825.58
 30
0.000000
  70
    32
  0
VERTEX
  8
0
  5
118C
 10
3415.62
 20
1825.56
 30
0.000000
  70
    32
  0
VERTEX
  8
0
  5
118D
 10
3415.63
 20
1825.55
 30
0.000000
  70
    32
  0
VERTEX
  8
0
  5
118E
 10
3415.63
 20
1825.53
 30
0.000000
  70
    32
  0
VERTEX
  8
0
  5
118F
 10
3415.63
 20
1825.52
 30
0.000000
  70
    32
  0
VERTEX
  8
0
  5
1190
 10
3415.63
 20
1825.50
 30
0.000000
  70
    32
  0
VERTEX
  8
0
  5
1191
 10
3415.64
 20
1825.49
 30
0.000000
  70
    32
  0
VERTEX
  8
0
  5
1192
 10
3415.64
 20
1825.48
 30
0.000000
  70
    32
  0
VERTEX
  8
0
  5
1193
 10
3415.64
 20
1825.46
 30
0.000000
  70
    32
  0
VERTEX
  8
0
  5
1194
 10
3415.64
 20
1825.45
 30
0.000000
  70
    32
  0
VERTEX
  8
0
  5
1195
 10
3415.65
 20
1825.43
 30
0.000000
  70
    32
  0
VERTEX
  8
0
  5
1196
 10
3415.65
 20
1825.42
 30
0.000000
  70
    32
  0
VERTEX
  8
0
  5
1197
 10
3415.65
 20
1825.40
 30
0.000000
  70
    32
  0
VERTEX
  8
0
  5
1198
 10
3415.66
 20
1825.39
 30
0.000000
  70
    32
  0
VERTEX
  8
0
  5
1199
 10
3415.66
 20
1825.37
 30
0.000000
  70
    32
  0
VERTEX
  8
0
  5
119A
 10
3415.66
 20
1825.36
 30
0.000000
  70
    32
  0
VERTEX
  8
0
  5
119B
 10
3415.66
 20
1825.34
 30
0.000000
  70
    32
  0
VERTEX
  8
0
  5
119C
 10
3415.67
 20
1825.33
 30
0.000000
  70
    32
  0
VERTEX
  8
0
  5
119D
 10
3415.67
 20
1825.31
 30
0.000000
  70
    32
  0
VERTEX
  8
0
  5
119E
 10
3415.67
 20
1825.30
 30
0.000000
  70
    32
  0
VERTEX
  8
0
  5
119F
 10
3415.67
 20
1825.29
 30
0.000000
  70
    32
  0
VERTEX
  8
0
  5
11A0
 10
3415.68
 20
1825.27
 30
0.000000
  70
    32
  0
VERTEX
  8
0
  5
11A1
 10
3415.68
 20
1825.26
 30
0.000000
  70
    32
  0
VERTEX
  8
0
  5
11A2
 10
3415.68
 20
1825.24
 30
0.000000
  70
    32
  0
VERTEX
  8
0
  5
11A3
 10
3415.69
 20
1825.23
 30
0.000000
  70
    32
  0
VERTEX
  8
0
  5
11A4
 10
3415.69
 20
1825.21
 30
0.000000
  70
    32
  0
VERTEX
  8
0
  5
11A5
 10
3415.69
 20
1825.20
 30
0.000000
  70
    32
  0
VERTEX
  8
0
  5
11A6
 10
3415.70
 20
1825.18
 30
0.000000
  70
    32
  0
VERTEX
  8
0
  5
11A7
 10
3415.70
 20
1825.17
 30
0.000000
  70
    32
  0
VERTEX
  8
0
  5
11A8
 10
3415.70
 20
1825.15
 30
0.000000
  70
    32
  0
VERTEX
  8
0
  5
11A9
 10
3415.70
 20
1825.14
 30
0.000000
  70
    32
  0
VERTEX
  8
0
  5
11AA
 10
3415.71
 20
1825.12
 30
0.000000
  70
    32
  0
VERTEX
  8
0
  5
11AB
 10
3415.71
 20
1825.11
 30
0.000000
  70
    32
  0
VERTEX
  8
0
  5
11AC
 10
3415.71
 20
1825.09
 30
0.000000
  70
    32
  0
VERTEX
  8
0
  5
11AD
 10
3415.72
 20
1825.08
 30
0.000000
  70
    32
  0
VERTEX
  8
0
  5
11AE
 10
3415.72
 20
1825.07
 30
0.000000
  70
    32
  0
VERTEX
  8
0
  5
11AF
 10
3415.72
 20
1825.05
 30
0.000000
  70
    32
  0
VERTEX
  8
0
  5
11B0
 10
3415.72
 20
1825.04
 30
0.000000
  70
    32
  0
VERTEX
  8
0
  5
11B1
 10
3415.73
 20
1825.02
 30
0.000000
  70
    32
  0
VERTEX
  8
0
  5
11B2
 10
3415.73
 20
1825.01
 30
0.000000
  70
    32
  0
VERTEX
  8
0
  5
11B3
 10
3415.73
 20
1824.99
 30
0.000000
  70
    32
  0
VERTEX
  8
0
  5
11B4
 10
3415.74
 20
1824.98
 30
0.000000
  70
    32
  0
VERTEX
  8
0
  5
11B5
 10
3415.74
 20
1824.96
 30
0.000000
  70
    32
  0
VERTEX
  8
0
  5
11B6
 10
3415.74
 20
1824.95
 30
0.000000
  70
    32
  0
VERTEX
  8
0
  5
11B7
 10
3415.75
 20
1824.93
 30
0.000000
  70
    32
  0
VERTEX
  8
0
  5
11B8
 10
3415.75
 20
1824.92
 30
0.000000
  70
    32
  0
VERTEX
  8
0
  5
11B9
 10
3415.75
 20
1824.90
 30
0.000000
  70
    32
  0
VERTEX
  8
0
  5
11BA
 10
3415.76
 20
1824.89
 30
0.000000
  70
    32
  0
VERTEX
  8
0
  5
11BB
 10
3415.76
 20
1824.87
 30
0.000000
  70
    32
  0
VERTEX
  8
0
  5
11BC
 10
3415.76
 20
1824.86
 30
0.000000
  70
    32
  0
VERTEX
  8
0
  5
11BD
 10
3415.76
 20
1824.84
 30
0.000000
  70
    32
  0
VERTEX
  8
0
  5
11BE
 10
3415.77
 20
1824.83
 30
0.000000
  70
    32
  0
VERTEX
  8
0
  5
11BF
 10
3415.77
 20
1824.81
 30
0.000000
  70
    32
  0
VERTEX
  8
0
  5
11C0
 10
3415.77
 20
1824.80
 30
0.000000
  70
    32
  0
VERTEX
  8
0
  5
11C1
 10
3415.78
 20
1824.79
 30
0.000000
  70
    32
  0
VERTEX
  8
0
  5
11C2
 10
3415.78
 20
1824.77
 30
0.000000
  70
    32
  0
VERTEX
  8
0
  5
11C3
 10
3415.78
 20
1824.76
 30
0.000000
  70
    32
  0
VERTEX
  8
0
  5
11C4
 10
3415.79
 20
1824.74
 30
0.000000
  70
    32
  0
VERTEX
  8
0
  5
11C5
 10
3415.79
 20
1824.73
 30
0.000000
  70
    32
  0
VERTEX
  8
0
  5
11C6
 10
3415.79
 20
1824.71
 30
0.000000
  70
    32
  0
VERTEX
  8
0
  5
11C7
 10
3415.80
 20
1824.70
 30
0.000000
  70
    32
  0
VERTEX
  8
0
  5
11C8
 10
3415.80
 20
1824.68
 30
0.000000
  70
    32
  0
VERTEX
  8
0
  5
11C9
 10
3415.80
 20
1824.67
 30
0.000000
  70
    32
  0
VERTEX
  8
0
  5
11CA
 10
3415.81
 20
1824.65
 30
0.000000
  70
    32
  0
VERTEX
  8
0
  5
11CB
 10
3415.81
 20
1824.64
 30
0.000000
  70
    32
  0
VERTEX
  8
0
  5
11CC
 10
3415.81
 20
1824.62
 30
0.000000
  70
    32
  0
VERTEX
  8
0
  5
11CD
 10
3415.82
 20
1824.61
 30
0.000000
  70
    32
  0
VERTEX
  8
0
  5
11CE
 10
3415.82
 20
1824.59
 30
0.000000
  70
    32
  0
VERTEX
  8
0
  5
11CF
 10
3415.82
 20
1824.58
 30
0.000000
  70
    32
  0
VERTEX
  8
0
  5
11D0
 10
3415.83
 20
1824.56
 30
0.000000
  70
    32
  0
VERTEX
  8
0
  5
11D1
 10
3415.83
 20
1824.55
 30
0.000000
  70
    32
  0
VERTEX
  8
0
  5
11D2
 10
3415.83
 20
1824.53
 30
0.000000
  70
    32
  0
VERTEX
  8
0
  5
11D3
 10
3415.84
 20
1824.52
 30
0.000000
  70
    32
  0
VERTEX
  8
0
  5
11D4
 10
3415.84
 20
1824.50
 30
0.000000
  70
    32
  0
VERTEX
  8
0
  5
11D5
 10
3415.84
 20
1824.49
 30
0.000000
  70
    32
  0
VERTEX
  8
0
  5
11D6
 10
3415.85
 20
1824.47
 30
0.000000
  70
    32
  0
VERTEX
  8
0
  5
11D7
 10
3415.85
 20
1824.46
 30
0.000000
  70
    32
  0
VERTEX
  8
0
  5
11D8
 10
3415.85
 20
1824.45
 30
0.000000
  70
    32
  0
VERTEX
  8
0
  5
11D9
 10
3415.86
 20
1824.43
 30
0.000000
  70
    32
  0
VERTEX
  8
0
  5
11DA
 10
3415.86
 20
1824.42
 30
0.000000
  70
    32
  0
VERTEX
  8
0
  5
11DB
 10
3415.86
 20
1824.40
 30
0.000000
  70
    32
  0
VERTEX
  8
0
  5
11DC
 10
3415.87
 20
1824.39
 30
0.000000
  70
    32
  0
VERTEX
  8
0
  5
11DD
 10
3415.87
 20
1824.37
 30
0.000000
  70
    32
  0
VERTEX
  8
0
  5
11DE
 10
3415.87
 20
1824.36
 30
0.000000
  70
    32
  0
VERTEX
  8
0
  5
11DF
 10
3415.88
 20
1824.34
 30
0.000000
  70
    32
  0
VERTEX
  8
0
  5
11E0
 10
3415.88
 20
1824.33
 30
0.000000
  70
    32
  0
VERTEX
  8
0
  5
11E1
 10
3415.89
 20
1824.31
 30
0.000000
  70
    32
  0
VERTEX
  8
0
  5
11E2
 10
3415.89
 20
1824.30
 30
0.000000
  70
    32
  0
VERTEX
  8
0
  5
11E3
 10
3415.89
 20
1824.28
 30
0.000000
  70
    32
  0
VERTEX
  8
0
  5
11E4
 10
3415.90
 20
1824.27
 30
0.000000
  70
    32
  0
VERTEX
  8
0
  5
11E5
 10
3415.90
 20
1824.25
 30
0.000000
  70
    32
  0
VERTEX
  8
0
  5
11E6
 10
3415.90
 20
1824.24
 30
0.000000
  70
    32
  0
VERTEX
  8
0
  5
11E7
 10
3415.91
 20
1824.22
 30
0.000000
  70
    32
  0
VERTEX
  8
0
  5
11E8
 10
3415.91
 20
1824.21
 30
0.000000
  70
    32
  0
VERTEX
  8
0
  5
11E9
 10
3415.92
 20
1824.19
 30
0.000000
  70
    32
  0
VERTEX
  8
0
  5
11EA
 10
3415.92
 20
1824.18
 30
0.000000
  70
    32
  0
VERTEX
  8
0
  5
11EB
 10
3415.92
 20
1824.16
 30
0.000000
  70
    32
  0
VERTEX
  8
0
  5
11EC
 10
3415.93
 20
1824.15
 30
0.000000
  70
    32
  0
VERTEX
  8
0
  5
11ED
 10
3415.93
 20
1824.13
 30
0.000000
  70
    32
  0
VERTEX
  8
0
  5
11EE
 10
3415.93
 20
1824.12
 30
0.000000
  70
    32
  0
VERTEX
  8
0
  5
11EF
 10
3415.94
 20
1824.10
 30
0.000000
  70
    32
  0
VERTEX
  8
0
  5
11F0
 10
3415.94
 20
1824.09
 30
0.000000
  70
    32
  0
VERTEX
  8
0
  5
11F1
 10
3415.95
 20
1824.07
 30
0.000000
  70
    32
  0
VERTEX
  8
0
  5
11F2
 10
3415.95
 20
1824.06
 30
0.000000
  70
    32
  0
VERTEX
  8
0
  5
11F3
 10
3415.95
 20
1824.04
 30
0.000000
  70
    32
  0
VERTEX
  8
0
  5
11F4
 10
3415.96
 20
1824.03
 30
0.000000
  70
    32
  0
VERTEX
  8
0
  5
11F5
 10
3415.96
 20
1824.01
 30
0.000000
  70
    32
  0
VERTEX
  8
0
  5
11F6
 10
3415.97
 20
1824.00
 30
0.000000
  70
    32
  0
VERTEX
  8
0
  5
11F7
 10
3415.97
 20
1823.98
 30
0.000000
  70
    32
  0
VERTEX
  8
0
  5
11F8
 10
3415.97
 20
1823.97
 30
0.000000
  70
    32
  0
VERTEX
  8
0
  5
11F9
 10
3415.98
 20
1823.95
 30
0.000000
  70
    32
  0
VERTEX
  8
0
  5
11FA
 10
3415.98
 20
1823.94
 30
0.000000
  70
    32
  0
VERTEX
  8
0
  5
11FB
 10
3415.99
 20
1823.92
 30
0.000000
  70
    32
  0
VERTEX
  8
0
  5
11FC
 10
3415.99
 20
1823.91
 30
0.000000
  70
    32
  0
VERTEX
  8
0
  5
11FD
 10
3415.99
 20
1823.89
 30
0.000000
  70
    32
  0
VERTEX
  8
0
  5
11FE
 10
3416.00
 20
1823.88
 30
0.000000
  70
    32
  0
VERTEX
  8
0
  5
11FF
 10
3416.00
 20
1823.86
 30
0.000000
  70
    32
  0
VERTEX
  8
0
  5
1200
 10
3416.01
 20
1823.85
 30
0.000000
  70
    32
  0
VERTEX
  8
0
  5
1201
 10
3416.01
 20
1823.83
 30
0.000000
  70
    32
  0
VERTEX
  8
0
  5
1202
 10
3416.02
 20
1823.81
 30
0.000000
  70
    32
  0
VERTEX
  8
0
  5
1203
 10
3416.02
 20
1823.80
 30
0.000000
  70
    32
  0
VERTEX
  8
0
  5
1204
 10
3416.02
 20
1823.78
 30
0.000000
  70
    32
  0
VERTEX
  8
0
  5
1205
 10
3416.03
 20
1823.77
 30
0.000000
  70
    32
  0
VERTEX
  8
0
  5
1206
 10
3416.03
 20
1823.75
 30
0.000000
  70
    32
  0
VERTEX
  8
0
  5
1207
 10
3416.04
 20
1823.74
 30
0.000000
  70
    32
  0
VERTEX
  8
0
  5
1208
 10
3416.04
 20
1823.72
 30
0.000000
  70
    32
  0
VERTEX
  8
0
  5
1209
 10
3416.05
 20
1823.71
 30
0.000000
  70
    32
  0
VERTEX
  8
0
  5
120A
 10
3416.05
 20
1823.69
 30
0.000000
  70
    32
  0
VERTEX
  8
0
  5
120B
 10
3416.06
 20
1823.68
 30
0.000000
  70
    32
  0
VERTEX
  8
0
  5
120C
 10
3416.06
 20
1823.66
 30
0.000000
  70
    32
  0
VERTEX
  8
0
  5
120D
 10
3416.06
 20
1823.65
 30
0.000000
  70
    32
  0
VERTEX
  8
0
  5
120E
 10
3416.07
 20
1823.63
 30
0.000000
  70
    32
  0
VERTEX
  8
0
  5
120F
 10
3416.07
 20
1823.62
 30
0.000000
  70
    32
  0
VERTEX
  8
0
  5
1210
 10
3416.08
 20
1823.60
 30
0.000000
  70
    32
  0
VERTEX
  8
0
  5
1211
 10
3416.08
 20
1823.59
 30
0.000000
  70
    32
  0
VERTEX
  8
0
  5
1212
 10
3416.09
 20
1823.57
 30
0.000000
  70
    32
  0
VERTEX
  8
0
  5
1213
 10
3416.09
 20
1823.56
 30
0.000000
  70
    32
  0
VERTEX
  8
0
  5
1214
 10
3416.10
 20
1823.54
 30
0.000000
  70
    32
  0
VERTEX
  8
0
  5
1215
 10
3416.10
 20
1823.53
 30
0.000000
  70
    32
  0
VERTEX
  8
0
  5
1216
 10
3416.11
 20
1823.51
 30
0.000000
  70
    32
  0
VERTEX
  8
0
  5
1217
 10
3416.11
 20
1823.49
 30
0.000000
  70
    32
  0
VERTEX
  8
0
  5
1218
 10
3416.12
 20
1823.48
 30
0.000000
  70
    32
  0
VERTEX
  8
0
  5
1219
 10
3416.12
 20
1823.46
 30
0.000000
  70
    32
  0
VERTEX
  8
0
  5
121A
 10
3416.13
 20
1823.45
 30
0.000000
  70
    32
  0
VERTEX
  8
0
  5
121B
 10
3416.13
 20
1823.43
 30
0.000000
  70
    32
  0
VERTEX
  8
0
  5
121C
 10
3416.14
 20
1823.42
 30
0.000000
  70
    32
  0
VERTEX
  8
0
  5
121D
 10
3416.14
 20
1823.40
 30
0.000000
  70
    32
  0
VERTEX
  8
0
  5
121E
 10
3416.15
 20
1823.39
 30
0.000000
  70
    32
  0
VERTEX
  8
0
  5
121F
 10
3416.15
 20
1823.37
 30
0.000000
  70
    32
  0
VERTEX
  8
0
  5
1220
 10
3416.16
 20
1823.35
 30
0.000000
  70
    32
  0
VERTEX
  8
0
  5
1221
 10
3416.16
 20
1823.34
 30
0.000000
  70
    32
  0
VERTEX
  8
0
  5
1222
 10
3416.17
 20
1823.32
 30
0.000000
  70
    32
  0
VERTEX
  8
0
  5
1223
 10
3416.17
 20
1823.31
 30
0.000000
  70
    32
  0
VERTEX
  8
0
  5
1224
 10
3416.18
 20
1823.29
 30
0.000000
  70
    32
  0
VERTEX
  8
0
  5
1225
 10
3416.19
 20
1823.28
 30
0.000000
  70
    32
  0
VERTEX
  8
0
  5
1226
 10
3416.19
 20
1823.26
 30
0.000000
  70
    32
  0
VERTEX
  8
0
  5
1227
 10
3416.20
 20
1823.24
 30
0.000000
  70
    32
  0
VERTEX
  8
0
  5
1228
 10
3416.20
 20
1823.23
 30
0.000000
  70
    32
  0
VERTEX
  8
0
  5
1229
 10
3416.21
 20
1823.21
 30
0.000000
  70
    32
  0
VERTEX
  8
0
  5
122A
 10
3416.21
 20
1823.20
 30
0.000000
  70
    32
  0
VERTEX
  8
0
  5
122B
 10
3416.22
 20
1823.18
 30
0.000000
  70
    32
  0
VERTEX
  8
0
  5
122C
 10
3416.23
 20
1823.16
 30
0.000000
  70
    32
  0
VERTEX
  8
0
  5
122D
 10
3416.23
 20
1823.15
 30
0.000000
  70
    32
  0
VERTEX
  8
0
  5
122E
 10
3416.24
 20
1823.13
 30
0.000000
  70
    32
  0
VERTEX
  8
0
  5
122F
 10
3416.24
 20
1823.12
 30
0.000000
  70
    32
  0
VERTEX
  8
0
  5
1230
 10
3416.25
 20
1823.10
 30
0.000000
  70
    32
  0
VERTEX
  8
0
  5
1231
 10
3416.26
 20
1823.08
 30
0.000000
  70
    32
  0
VERTEX
  8
0
  5
1232
 10
3416.26
 20
1823.07
 30
0.000000
  70
    32
  0
VERTEX
  8
0
  5
1233
 10
3416.27
 20
1823.05
 30
0.000000
  70
    32
  0
VERTEX
  8
0
  5
1234
 10
3416.28
 20
1823.03
 30
0.000000
  70
    32
  0
VERTEX
  8
0
  5
1235
 10
3416.28
 20
1823.02
 30
0.000000
  70
    32
  0
VERTEX
  8
0
  5
1236
 10
3416.29
 20
1823.00
 30
0.000000
  70
    32
  0
VERTEX
  8
0
  5
1237
 10
3416.30
 20
1822.98
 30
0.000000
  70
    32
  0
VERTEX
  8
0
  5
1238
 10
3416.30
 20
1822.97
 30
0.000000
  70
    32
  0
VERTEX
  8
0
  5
1239
 10
3416.31
 20
1822.95
 30
0.000000
  70
    32
  0
VERTEX
  8
0
  5
123A
 10
3416.32
 20
1822.93
 30
0.000000
  70
    32
  0
VERTEX
  8
0
  5
123B
 10
3416.32
 20
1822.92
 30
0.000000
  70
    32
  0
VERTEX
  8
0
  5
123C
 10
3416.33
 20
1822.90
 30
0.000000
  70
    32
  0
VERTEX
  8
0
  5
123D
 10
3416.34
 20
1822.88
 30
0.000000
  70
    32
  0
VERTEX
  8
0
  5
123E
 10
3416.35
 20
1822.86
 30
0.000000
  70
    32
  0
VERTEX
  8
0
  5
123F
 10
3416.36
 20
1822.85
 30
0.000000
  70
    32
  0
VERTEX
  8
0
  5
1240
 10
3416.36
 20
1822.83
 30
0.000000
  70
    32
  0
VERTEX
  8
0
  5
1241
 10
3416.37
 20
1822.81
 30
0.000000
  70
    32
  0
VERTEX
  8
0
  5
1242
 10
3416.38
 20
1822.80
 30
0.000000
  70
    32
  0
VERTEX
  8
0
  5
1243
 10
3416.39
 20
1822.78
 30
0.000000
  70
    32
  0
VERTEX
  8
0
  5
1244
 10
3416.40
 20
1822.76
 30
0.000000
  70
    32
  0
VERTEX
  8
0
  5
1245
 10
3416.40
 20
1822.74
 30
0.000000
  70
    32
  0
VERTEX
  8
0
  5
1246
 10
3416.41
 20
1822.73
 30
0.000000
  70
    32
  0
VERTEX
  8
0
  5
1247
 10
3416.42
 20
1822.71
 30
0.000000
  70
    32
  0
VERTEX
  8
0
  5
1248
 10
3416.43
 20
1822.69
 30
0.000000
  70
    32
  0
VERTEX
  8
0
  5
1249
 10
3416.44
 20
1822.68
 30
0.000000
  70
    32
  0
VERTEX
  8
0
  5
124A
 10
3416.45
 20
1822.66
 30
0.000000
  70
    32
  0
VERTEX
  8
0
  5
124B
 10
3416.45
 20
1822.64
 30
0.000000
  70
    32
  0
VERTEX
  8
0
  5
124C
 10
3416.46
 20
1822.63
 30
0.000000
  70
    32
  0
VERTEX
  8
0
  5
124D
 10
3416.47
 20
1822.61
 30
0.000000
  70
    32
  0
VERTEX
  8
0
  5
124E
 10
3416.48
 20
1822.59
 30
0.000000
  70
    32
  0
VERTEX
  8
0
  5
124F
 10
3416.49
 20
1822.57
 30
0.000000
  70
    32
  0
VERTEX
  8
0
  5
1250
 10
3416.50
 20
1822.56
 30
0.000000
  70
    32
  0
VERTEX
  8
0
  5
1251
 10
3416.51
 20
1822.54
 30
0.000000
  70
    32
  0
VERTEX
  8
0
  5
1252
 10
3416.52
 20
1822.52
 30
0.000000
  70
    32
  0
VERTEX
  8
0
  5
1253
 10
3416.53
 20
1822.50
 30
0.000000
  70
    32
  0
VERTEX
  8
0
  5
1254
 10
3416.55
 20
1822.48
 30
0.000000
  70
    32
  0
VERTEX
  8
0
  5
1255
 10
3416.56
 20
1822.46
 30
0.000000
  70
    32
  0
VERTEX
  8
0
  5
1256
 10
3416.57
 20
1822.44
 30
0.000000
  70
    32
  0
VERTEX
  8
0
  5
1257
 10
3416.58
 20
1822.42
 30
0.000000
  70
    32
  0
VERTEX
  8
0
  5
1258
 10
3416.60
 20
1822.39
 30
0.000000
  70
    32
  0
VERTEX
  8
0
  5
1259
 10
3416.61
 20
1822.37
 30
0.000000
  70
    32
  0
VERTEX
  8
0
  5
125A
 10
3416.63
 20
1822.35
 30
0.000000
  70
    32
  0
VERTEX
  8
0
  5
125B
 10
3416.64
 20
1822.33
 30
0.000000
  70
    32
  0
VERTEX
  8
0
  5
125C
 10
3416.66
 20
1822.30
 30
0.000000
  70
    32
  0
VERTEX
  8
0
  5
125D
 10
3416.68
 20
1822.28
 30
0.000000
  70
    32
  0
VERTEX
  8
0
  5
125E
 10
3416.70
 20
1822.26
 30
0.000000
  70
    32
  0
VERTEX
  8
0
  5
125F
 10
3416.71
 20
1822.23
 30
0.000000
  70
    32
  0
VERTEX
  8
0
  5
1260
 10
3416.73
 20
1822.21
 30
0.000000
  70
    32
  0
VERTEX
  8
0
  5
1261
 10
3416.75
 20
1822.19
 30
0.000000
  70
    32
  0
VERTEX
  8
0
  5
1262
 10
3416.77
 20
1822.17
 30
0.000000
  70
    32
  0
VERTEX
  8
0
  5
1263
 10
3416.79
 20
1822.14
 30
0.000000
  70
    32
  0
VERTEX
  8
0
  5
1264
 10
3416.82
 20
1822.12
 30
0.000000
  70
    32
  0
VERTEX
  8
0
  5
1265
 10
3416.84
 20
1822.09
 30
0.000000
  70
    32
  0
VERTEX
  8
0
  5
1266
 10
3416.86
 20
1822.07
 30
0.000000
  70
    32
  0
VERTEX
  8
0
  5
1267
 10
3416.89
 20
1822.04
 30
0.000000
  70
    32
  0
VERTEX
  8
0
  5
1268
 10
3416.92
 20
1822.02
 30
0.000000
  70
    32
  0
VERTEX
  8
0
  5
1269
 10
3416.95
 20
1821.99
 30
0.000000
  70
    32
  0
VERTEX
  8
0
  5
126A
 10
3416.98
 20
1821.96
 30
0.000000
  70
    32
  0
VERTEX
  8
0
  5
126B
 10
3417.02
 20
1821.94
 30
0.000000
  70
    32
  0
VERTEX
  8
0
  5
126C
 10
3417.05
 20
1821.91
 30
0.000000
  70
    32
  0
VERTEX
  8
0
  5
126D
 10
3417.09
 20
1821.88
 30
0.000000
  70
    32
  0
VERTEX
  8
0
  5
126E
 10
3417.14
 20
1821.86
 30
0.000000
  70
    32
  0
VERTEX
  8
0
  5
126F
 10
3417.18
 20
1821.83
 30
0.000000
  70
    32
  0
VERTEX
  8
0
  5
1270
 10
3417.23
 20
1821.81
 30
0.000000
  70
    32
  0
SEQEND
  8
0
  5
1271
  0
POLYLINE
  8
0
  5
1272
  66
     1
 10
0.000000
 20
0.000000
 30
0.000000
  70
     8
  0
VERTEX
  8
0
  5
1273
 10
3428.54
 20
1822.30
 30
0.000000
  70
    32
  0
VERTEX
  8
0
  5
1274
 10
3428.54
 20
1822.30
 30
0.000000
  70
    32
  0
VERTEX
  8
0
  5
1275
 10
3428.54
 20
1822.30
 30
0.000000
  70
    32
  0
VERTEX
  8
0
  5
1276
 10
3428.53
 20
1822.30
 30
0.000000
  70
    32
  0
VERTEX
  8
0
  5
1277
 10
3428.53
 20
1822.30
 30
0.000000
  70
    32
  0
VERTEX
  8
0
  5
1278
 10
3428.52
 20
1822.29
 30
0.000000
  70
    32
  0
VERTEX
  8
0
  5
1279
 10
3428.52
 20
1822.29
 30
0.000000
  70
    32
  0
VERTEX
  8
0
  5
127A
 10
3428.51
 20
1822.29
 30
0.000000
  70
    32
  0
VERTEX
  8
0
  5
127B
 10
3428.51
 20
1822.29
 30
0.000000
  70
    32
  0
VERTEX
  8
0
  5
127C
 10
3428.50
 20
1822.29
 30
0.000000
  70
    32
  0
VERTEX
  8
0
  5
127D
 10
3428.50
 20
1822.28
 30
0.000000
  70
    32
  0
VERTEX
  8
0
  5
127E
 10
3428.50
 20
1822.28
 30
0.000000
  70
    32
  0
VERTEX
  8
0
  5
127F
 10
3428.49
 20
1822.28
 30
0.000000
  70
    32
  0
VERTEX
  8
0
  5
1280
 10
3428.49
 20
1822.28
 30
0.000000
  70
    32
  0
VERTEX
  8
0
  5
1281
 10
3428.48
 20
1822.28
 30
0.000000
  70
    32
  0
VERTEX
  8
0
  5
1282
 10
3428.48
 20
1822.27
 30
0.000000
  70
    32
  0
VERTEX
  8
0
  5
1283
 10
3428.47
 20
1822.27
 30
0.000000
  70
    32
  0
VERTEX
  8
0
  5
1284
 10
3428.47
 20
1822.27
 30
0.000000
  70
    32
  0
VERTEX
  8
0
  5
1285
 10
3428.46
 20
1822.27
 30
0.000000
  70
    32
  0
VERTEX
  8
0
  5
1286
 10
3428.46
 20
1822.27
 30
0.000000
  70
    32
  0
VERTEX
  8
0
  5
1287
 10
3428.46
 20
1822.26
 30
0.000000
  70
    32
  0
VERTEX
  8
0
  5
1288
 10
3428.45
 20
1822.26
 30
0.000000
  70
    32
  0
VERTEX
  8
0
  5
1289
 10
3428.45
 20
1822.26
 30
0.000000
  70
    32
  0
VERTEX
  8
0
  5
128A
 10
3428.44
 20
1822.26
 30
0.000000
  70
    32
  0
VERTEX
  8
0
  5
128B
 10
3428.44
 20
1822.26
 30
0.000000
  70
    32
  0
VERTEX
  8
0
  5
128C
 10
3428.43
 20
1822.25
 30
0.000000
  70
    32
  0
VERTEX
  8
0
  5
128D
 10
3428.43
 20
1822.25
 30
0.000000
  70
    32
  0
VERTEX
  8
0
  5
128E
 10
3428.42
 20
1822.25
 30
0.000000
  70
    32
  0
VERTEX
  8
0
  5
128F
 10
3428.42
 20
1822.25
 30
0.000000
  70
    32
  0
VERTEX
  8
0
  5
1290
 10
3428.42
 20
1822.25
 30
0.000000
  70
    32
  0
VERTEX
  8
0
  5
1291
 10
3428.41
 20
1822.24
 30
0.000000
  70
    32
  0
VERTEX
  8
0
  5
1292
 10
3428.41
 20
1822.24
 30
0.000000
  70
    32
  0
VERTEX
  8
0
  5
1293
 10
3428.40
 20
1822.24
 30
0.000000
  70
    32
  0
VERTEX
  8
0
  5
1294
 10
3428.40
 20
1822.24
 30
0.000000
  70
    32
  0
VERTEX
  8
0
  5
1295
 10
3428.39
 20
1822.24
 30
0.000000
  70
    32
  0
VERTEX
  8
0
  5
1296
 10
3428.39
 20
1822.23
 30
0.000000
  70
    32
  0
VERTEX
  8
0
  5
1297
 10
3428.38
 20
1822.23
 30
0.000000
  70
    32
  0
VERTEX
  8
0
  5
1298
 10
3428.38
 20
1822.23
 30
0.000000
  70
    32
  0
VERTEX
  8
0
  5
1299
 10
3428.38
 20
1822.23
 30
0.000000
  70
    32
  0
VERTEX
  8
0
  5
129A
 10
3428.37
 20
1822.23
 30
0.000000
  70
    32
  0
VERTEX
  8
0
  5
129B
 10
3428.37
 20
1822.22
 30
0.000000
  70
    32
  0
VERTEX
  8
0
  5
129C
 10
3428.36
 20
1822.22
 30
0.000000
  70
    32
  0
VERTEX
  8
0
  5
129D
 10
3428.36
 20
1822.22
 30
0.000000
  70
    32
  0
VERTEX
  8
0
  5
129E
 10
3428.35
 20
1822.22
 30
0.000000
  70
    32
  0
VERTEX
  8
0
  5
129F
 10
3428.35
 20
1822.22
 30
0.000000
  70
    32
  0
VERTEX
  8
0
  5
12A0
 10
3428.34
 20
1822.21
 30
0.000000
  70
    32
  0
VERTEX
  8
0
  5
12A1
 10
3428.34
 20
1822.21
 30
0.000000
  70
    32
  0
VERTEX
  8
0
  5
12A2
 10
3428.33
 20
1822.21
 30
0.000000
  70
    32
  0
VERTEX
  8
0
  5
12A3
 10
3428.33
 20
1822.21
 30
0.000000
  70
    32
  0
VERTEX
  8
0
  5
12A4
 10
3428.33
 20
1822.21
 30
0.000000
  70
    32
  0
VERTEX
  8
0
  5
12A5
 10
3428.32
 20
1822.20
 30
0.000000
  70
    32
  0
VERTEX
  8
0
  5
12A6
 10
3428.32
 20
1822.20
 30
0.000000
  70
    32
  0
VERTEX
  8
0
  5
12A7
 10
3428.31
 20
1822.20
 30
0.000000
  70
    32
  0
VERTEX
  8
0
  5
12A8
 10
3428.31
 20
1822.20
 30
0.000000
  70
    32
  0
VERTEX
  8
0
  5
12A9
 10
3428.30
 20
1822.20
 30
0.000000
  70
    32
  0
VERTEX
  8
0
  5
12AA
 10
3428.30
 20
1822.19
 30
0.000000
  70
    32
  0
VERTEX
  8
0
  5
12AB
 10
3428.29
 20
1822.19
 30
0.000000
  70
    32
  0
VERTEX
  8
0
  5
12AC
 10
3428.29
 20
1822.19
 30
0.000000
  70
    32
  0
VERTEX
  8
0
  5
12AD
 10
3428.29
 20
1822.19
 30
0.000000
  70
    32
  0
VERTEX
  8
0
  5
12AE
 10
3428.28
 20
1822.19
 30
0.000000
  70
    32
  0
VERTEX
  8
0
  5
12AF
 10
3428.28
 20
1822.18
 30
0.000000
  70
    32
  0
VERTEX
  8
0
  5
12B0
 10
3428.27
 20
1822.18
 30
0.000000
  70
    32
  0
VERTEX
  8
0
  5
12B1
 10
3428.27
 20
1822.18
 30
0.000000
  70
    32
  0
VERTEX
  8
0
  5
12B2
 10
3428.26
 20
1822.18
 30
0.000000
  70
    32
  0
VERTEX
  8
0
  5
12B3
 10
3428.26
 20
1822.18
 30
0.000000
  70
    32
  0
VERTEX
  8
0
  5
12B4
 10
3428.25
 20
1822.18
 30
0.000000
  70
    32
  0
VERTEX
  8
0
  5
12B5
 10
3428.25
 20
1822.17
 30
0.000000
  70
    32
  0
VERTEX
  8
0
  5
12B6
 10
3428.25
 20
1822.17
 30
0.000000
  70
    32
  0
VERTEX
  8
0
  5
12B7
 10
3428.24
 20
1822.17
 30
0.000000
  70
    32
  0
VERTEX
  8
0
  5
12B8
 10
3428.24
 20
1822.17
 30
0.000000
  70
    32
  0
VERTEX
  8
0
  5
12B9
 10
3428.23
 20
1822.17
 30
0.000000
  70
    32
  0
VERTEX
  8
0
  5
12BA
 10
3428.23
 20
1822.16
 30
0.000000
  70
    32
  0
VERTEX
  8
0
  5
12BB
 10
3428.22
 20
1822.16
 30
0.000000
  70
    32
  0
VERTEX
  8
0
  5
12BC
 10
3428.22
 20
1822.16
 30
0.000000
  70
    32
  0
VERTEX
  8
0
  5
12BD
 10
3428.21
 20
1822.16
 30
0.000000
  70
    32
  0
VERTEX
  8
0
  5
12BE
 10
3428.21
 20
1822.16
 30
0.000000
  70
    32
  0
VERTEX
  8
0
  5
12BF
 10
3428.20
 20
1822.15
 30
0.000000
  70
    32
  0
VERTEX
  8
0
  5
12C0
 10
3428.20
 20
1822.15
 30
0.000000
  70
    32
  0
VERTEX
  8
0
  5
12C1
 10
3428.20
 20
1822.15
 30
0.000000
  70
    32
  0
VERTEX
  8
0
  5
12C2
 10
3428.19
 20
1822.15
 30
0.000000
  70
    32
  0
VERTEX
  8
0
  5
12C3
 10
3428.19
 20
1822.15
 30
0.000000
  70
    32
  0
VERTEX
  8
0
  5
12C4
 10
3428.18
 20
1822.15
 30
0.000000
  70
    32
  0
VERTEX
  8
0
  5
12C5
 10
3428.18
 20
1822.14
 30
0.000000
  70
    32
  0
VERTEX
  8
0
  5
12C6
 10
3428.17
 20
1822.14
 30
0.000000
  70
    32
  0
VERTEX
  8
0
  5
12C7
 10
3428.17
 20
1822.14
 30
0.000000
  70
    32
  0
VERTEX
  8
0
  5
12C8
 10
3428.16
 20
1822.14
 30
0.000000
  70
    32
  0
VERTEX
  8
0
  5
12C9
 10
3428.16
 20
1822.14
 30
0.000000
  70
    32
  0
VERTEX
  8
0
  5
12CA
 10
3428.15
 20
1822.13
 30
0.000000
  70
    32
  0
VERTEX
  8
0
  5
12CB
 10
3428.15
 20
1822.13
 30
0.000000
  70
    32
  0
VERTEX
  8
0
  5
12CC
 10
3428.15
 20
1822.13
 30
0.000000
  70
    32
  0
VERTEX
  8
0
  5
12CD
 10
3428.14
 20
1822.13
 30
0.000000
  70
    32
  0
VERTEX
  8
0
  5
12CE
 10
3428.14
 20
1822.13
 30
0.000000
  70
    32
  0
VERTEX
  8
0
  5
12CF
 10
3428.13
 20
1822.13
 30
0.000000
  70
    32
  0
VERTEX
  8
0
  5
12D0
 10
3428.13
 20
1822.12
 30
0.000000
  70
    32
  0
VERTEX
  8
0
  5
12D1
 10
3428.12
 20
1822.12
 30
0.000000
  70
    32
  0
VERTEX
  8
0
  5
12D2
 10
3428.12
 20
1822.12
 30
0.000000
  70
    32
  0
VERTEX
  8
0
  5
12D3
 10
3428.11
 20
1822.12
 30
0.000000
  70
    32
  0
VERTEX
  8
0
  5
12D4
 10
3428.11
 20
1822.12
 30
0.000000
  70
    32
  0
VERTEX
  8
0
  5
12D5
 10
3428.10
 20
1822.11
 30
0.000000
  70
    32
  0
VERTEX
  8
0
  5
12D6
 10
3428.10
 20
1822.11
 30
0.000000
  70
    32
  0
VERTEX
  8
0
  5
12D7
 10
3428.10
 20
1822.11
 30
0.000000
  70
    32
  0
VERTEX
  8
0
  5
12D8
 10
3428.09
 20
1822.11
 30
0.000000
  70
    32
  0
VERTEX
  8
0
  5
12D9
 10
3428.09
 20
1822.11
 30
0.000000
  70
    32
  0
VERTEX
  8
0
  5
12DA
 10
3428.08
 20
1822.11
 30
0.000000
  70
    32
  0
VERTEX
  8
0
  5
12DB
 10
3428.08
 20
1822.10
 30
0.000000
  70
    32
  0
VERTEX
  8
0
  5
12DC
 10
3428.07
 20
1822.10
 30
0.000000
  70
    32
  0
VERTEX
  8
0
  5
12DD
 10
3428.07
 20
1822.10
 30
0.000000
  70
    32
  0
VERTEX
  8
0
  5
12DE
 10
3428.06
 20
1822.10
 30
0.000000
  70
    32
  0
VERTEX
  8
0
  5
12DF
 10
3428.06
 20
1822.10
 30
0.000000
  70
    32
  0
VERTEX
  8
0
  5
12E0
 10
3428.05
 20
1822.09
 30
0.000000
  70
    32
  0
VERTEX
  8
0
  5
12E1
 10
3428.05
 20
1822.09
 30
0.000000
  70
    32
  0
VERTEX
  8
0
  5
12E2
 10
3428.05
 20
1822.09
 30
0.000000
  70
    32
  0
VERTEX
  8
0
  5
12E3
 10
3428.04
 20
1822.09
 30
0.000000
  70
    32
  0
VERTEX
  8
0
  5
12E4
 10
3428.04
 20
1822.09
 30
0.000000
  70
    32
  0
VERTEX
  8
0
  5
12E5
 10
3428.03
 20
1822.09
 30
0.000000
  70
    32
  0
VERTEX
  8
0
  5
12E6
 10
3428.03
 20
1822.08
 30
0.000000
  70
    32
  0
VERTEX
  8
0
  5
12E7
 10
3428.02
 20
1822.08
 30
0.000000
  70
    32
  0
VERTEX
  8
0
  5
12E8
 10
3428.02
 20
1822.08
 30
0.000000
  70
    32
  0
VERTEX
  8
0
  5
12E9
 10
3428.01
 20
1822.08
 30
0.000000
  70
    32
  0
VERTEX
  8
0
  5
12EA
 10
3428.01
 20
1822.08
 30
0.000000
  70
    32
  0
VERTEX
  8
0
  5
12EB
 10
3428.00
 20
1822.08
 30
0.000000
  70
    32
  0
VERTEX
  8
0
  5
12EC
 10
3428.00
 20
1822.07
 30
0.000000
  70
    32
  0
VERTEX
  8
0
  5
12ED
 10
3428.00
 20
1822.07
 30
0.000000
  70
    32
  0
VERTEX
  8
0
  5
12EE
 10
3427.99
 20
1822.07
 30
0.000000
  70
    32
  0
VERTEX
  8
0
  5
12EF
 10
3427.99
 20
1822.07
 30
0.000000
  70
    32
  0
VERTEX
  8
0
  5
12F0
 10
3427.98
 20
1822.07
 30
0.000000
  70
    32
  0
VERTEX
  8
0
  5
12F1
 10
3427.98
 20
1822.07
 30
0.000000
  70
    32
  0
VERTEX
  8
0
  5
12F2
 10
3427.97
 20
1822.06
 30
0.000000
  70
    32
  0
VERTEX
  8
0
  5
12F3
 10
3427.97
 20
1822.06
 30
0.000000
  70
    32
  0
VERTEX
  8
0
  5
12F4
 10
3427.96
 20
1822.06
 30
0.000000
  70
    32
  0
VERTEX
  8
0
  5
12F5
 10
3427.96
 20
1822.06
 30
0.000000
  70
    32
  0
VERTEX
  8
0
  5
12F6
 10
3427.95
 20
1822.06
 30
0.000000
  70
    32
  0
VERTEX
  8
0
  5
12F7
 10
3427.95
 20
1822.05
 30
0.000000
  70
    32
  0
VERTEX
  8
0
  5
12F8
 10
3427.95
 20
1822.05
 30
0.000000
  70
    32
  0
VERTEX
  8
0
  5
12F9
 10
3427.94
 20
1822.05
 30
0.000000
  70
    32
  0
VERTEX
  8
0
  5
12FA
 10
3427.94
 20
1822.05
 30
0.000000
  70
    32
  0
VERTEX
  8
0
  5
12FB
 10
3427.93
 20
1822.05
 30
0.000000
  70
    32
  0
VERTEX
  8
0
  5
12FC
 10
3427.93
 20
1822.05
 30
0.000000
  70
    32
  0
VERTEX
  8
0
  5
12FD
 10
3427.92
 20
1822.04
 30
0.000000
  70
    32
  0
VERTEX
  8
0
  5
12FE
 10
3427.92
 20
1822.04
 30
0.000000
  70
    32
  0
VERTEX
  8
0
  5
12FF
 10
3427.91
 20
1822.04
 30
0.000000
  70
    32
  0
VERTEX
  8
0
  5
1300
 10
3427.91
 20
1822.04
 30
0.000000
  70
    32
  0
VERTEX
  8
0
  5
1301
 10
3427.90
 20
1822.04
 30
0.000000
  70
    32
  0
VERTEX
  8
0
  5
1302
 10
3427.90
 20
1822.04
 30
0.000000
  70
    32
  0
VERTEX
  8
0
  5
1303
 10
3427.89
 20
1822.03
 30
0.000000
  70
    32
  0
VERTEX
  8
0
  5
1304
 10
3427.89
 20
1822.03
 30
0.000000
  70
    32
  0
VERTEX
  8
0
  5
1305
 10
3427.89
 20
1822.03
 30
0.000000
  70
    32
  0
VERTEX
  8
0
  5
1306
 10
3427.88
 20
1822.03
 30
0.000000
  70
    32
  0
VERTEX
  8
0
  5
1307
 10
3427.88
 20
1822.03
 30
0.000000
  70
    32
  0
VERTEX
  8
0
  5
1308
 10
3427.87
 20
1822.03
 30
0.000000
  70
    32
  0
VERTEX
  8
0
  5
1309
 10
3427.87
 20
1822.02
 30
0.000000
  70
    32
  0
VERTEX
  8
0
  5
130A
 10
3427.86
 20
1822.02
 30
0.000000
  70
    32
  0
VERTEX
  8
0
  5
130B
 10
3427.86
 20
1822.02
 30
0.000000
  70
    32
  0
VERTEX
  8
0
  5
130C
 10
3427.85
 20
1822.02
 30
0.000000
  70
    32
  0
VERTEX
  8
0
  5
130D
 10
3427.85
 20
1822.02
 30
0.000000
  70
    32
  0
VERTEX
  8
0
  5
130E
 10
3427.84
 20
1822.02
 30
0.000000
  70
    32
  0
VERTEX
  8
0
  5
130F
 10
3427.84
 20
1822.01
 30
0.000000
  70
    32
  0
VERTEX
  8
0
  5
1310
 10
3427.84
 20
1822.01
 30
0.000000
  70
    32
  0
VERTEX
  8
0
  5
1311
 10
3427.83
 20
1822.01
 30
0.000000
  70
    32
  0
VERTEX
  8
0
  5
1312
 10
3427.83
 20
1822.01
 30
0.000000
  70
    32
  0
SEQEND
  8
0
  5
1313
  0
ARC
  5
2EA
  8
0
 10
3416.7763112841621
 20
1820.91321195206
 30
0.0
 40
1.0010504772656079
 50
0.0170281826409014
 51
63.164653030938211
  0
ARC
  5
313
  8
0
 10
3438.3177572759491
 20
1834.2496479503541
 30
0.0
 40
0.5
 50
46.42673116691423
 51
158.6925388254252
  0
ARC
  5
314
  8
0
 10
3437.9051349983852
 20
1836.0224904430511
 30
0.0
 40
0.5
 50
46.426733169734383
 51
160.85786578165889
  0
ARC
  5
315
  8
0
 10
3431.278047215887
 20
1823.490836878269
 30
0.0
 40
0.5
 50
129.93147941764971
 51
164.6848060239613
  0
ARC
  5
316
  8
0
 10
3428.755254557359
 20
1821.8507215240199
 30
0.0
 40
0.5
 50
344.68480537303782
 51
114.95575280348081
  0
LINE
  5
317
  8
0
 10
3426.377361711046
 20
1820.168996502905
 30
0.0
 11
3427.5887287734258
 21
1821.8326154233021
 31
0.0
  0
ARC
  5
318
  8
0
 10
3427.992927731188
 20
1821.5382972464081
 30
0.0
 40
0.5
 50
109.5188266425305
 51
143.93969956027121
  0
LINE
  5
319
  8
0
 10
3403.5773617110449
 20
1817.668996502905
 30
0.0
 11
3406.5903915024442
 21
1816.265566760743
 31
0.0
  0
LINE
  5
31A
  8
0
 10
3404.8662464815311
 20
1818.171808817624
 30
0.0
 11
3405.6528891793419
 21
1817.805400970708
 31
0.0
  0
ARC
  5
31B
  8
0
 10
3405.8640044088561
 20
1818.2586452314181
 30
0.0
 40
0.5
 50
245.0245140153387
 51
335.02451401551173
  0
LINE
  5
31C
  8
0
 10
3413.4806409791108
 20
1852.3702194540051
 30
0.0
 11
3405.0333285840952
 21
1853.0788737093901
 31
0.0
  0
LINE
  5
31D
  8
0
 10
3413.4844732056608
 20
1851.366385276227
 30
0.0
 11
3403.5773617110449
 21
1852.197503671159
 31
0.0
  0
ARC
  5
31E
  8
0
 10
3413.4426744858761
 20
1850.8681354723899
 30
0.0
 40
0.5
 50
0.0
 51
85.204622994098301
  0
LINE
  5
31F
  8
0
 10
3404.5773617110449
 20
1861.168996502905
 30
0.0
 11
3404.57512730388
 21
1853.5771235132279
 31
0.0
  0
ARC
  5
320
  8
0
 10
3405.07512730388
 20
1853.5771235132279
 30
0.0
 40
0.5
 50
180.0
 51
265.20462299409832
  0
LINE
  5
321
  8
0
 10
3403.5773617110449
 20
1862.668996502905
 30
0.0
 11
3403.5773617110449
 21
1852.197503671159
 31
0.0
  0
LINE
  5
322
  8
0
 10
3413.9426744858761
 20
1850.8681354723899
 30
0.0
 11
3413.9426744858761
 21
1850.8179978223279
 31
0.0
  0
LINE
  5
323
  8
0
 10
3403.5773617110449
 20
1820.668996502905
 30
0.0
 11
3407.955081450124
 21
1820.946528264072
 31
0.0
  0
LINE
  5
324
  8
0
 10
3405.045727008689
 20
1819.7600780687219
 30
0.0
 11
3406.337433679259
 21
1819.8419676479009
 31
0.0
  0
ARC
  5
325
  8
0
 10
3405.0773617110449
 20
1819.2610798266339
 30
0.0
 40
0.5
 50
93.627492765845957
 51
180.0
  0
LINE
  5
326
  8
0
 10
3403.5773617110449
 20
1820.668996502905
 30
0.0
 11
3403.5773617110449
 21
1817.668996502905
 31
0.0
  0
LINE
  5
327
  8
0
 10
3404.5773617110449
 20
1819.2610798266339
 30
0.0
 11
3404.5773617110449
 21
1818.625053078335
 31
0.0
  0
ARC
  5
328
  8
0
 10
3405.0773617110449
 20
1818.625053078335
 30
0.0
 40
0.5
 50
180.0
 51
245.0245140153387
  0
LINE
  5
329
  8
0
 10
3413.9426744858761
 20
1850.8179978223279
 30
0.0
 11
3413.9426744858761
 21
1850.168996502905
 31
0.0
  0
ENDSEC
  0
EOF
